BajagaOd kada tebe volim Текст

0 Голосов
Em D
Sad nemoj ništa da mi govoriš
A
Prepoznaću što god da pomisliš
A
Večeras samo nemoj
D A
Da me ne voliš

Preboleću što god da učiniš
Učiniću ti sve što poželiš
Večeras samo nemoj
Da me ostaviš

Em G
Od koga si se ti to sakrila
D
U meni čitav svet se rasipa
A
Od kada tebe volim pamet ne sluša

Em G
Da'l išta može da se sakrije
D
Po licu kad se svetlost polije
A
Od kada tebe volim vreme ne ide

Solo:
E|-------------7-10-9-10------------------7--------|
B|--7-8-7-8-10-----------7---5-7-5-7-8-10---10-7-5-|
G|-------------------------------------------------|
D|-------------------------------------------------|
A|-------------------------------------------------|
E|-------------------------------------------------|

E|----------7--------------------------------------|
B|--4-5-7-8---10-8-7----8-9-10-5-------------------|
G|-------------------------------------------------|
D|-------------------------------------------------|
A|-------------------------------------------------|
E|-------------------------------------------------|
Другие песни: