Average White BandPick Up The Pieces Текст

0 Голосов
Key: Fm7

gtr. 1/left channel
Intro
[E--11----------------------------------------------------
B--11--(freely)------------------------------------------
G--10----------------------------------------------------
D--------------------------------------------------------
A--------------------------------------------------------
E--------------------------------------------------------]

section 1/head
[E--4-----------------------------------------------------
B--4--(funky)--------------------------------------------
G--5-----------------------------------------------------
D--------------------------------------------------------
A--------------------------------------------------------
E--------------------------------------------------------]

section 1/bridge
[E--6-----------------------------------------------------
B--6--(freely)-------------------------------------------
G--7-----------------------------------------------------
D--------------------------------------------------------
A--------------------------------------------------------
E--------------------------------------------------------]

section 3/sax solo/key: A#m7
[E--6-----------------------------------------------------
B--6--(funky)--------------------------------------------]
[G----------------------](rpt. 6 bars, return to 1 section)
[D--------------------------------------------------------
A--------------------------------------------------------
E--------------------------------------------------------]

gtr. 2/right channel
Intro
[E--11----------------------------------------------------
B--11--(funky)-------------------------------------------
G--10----------------------------------------------------
D--------------------------------------------------------
A--------------------------------------------------------
E--------------------------------------------------------]

section 1/head
[E--------------------------------------------------------
B--------------------------------------------------------
G------------------8-------------------------------------
D-------------5-6-----6-----------------5-6-8-6>~~-------
A------6-7-8-------------8-------6-7-8-------------------
E--<8-------------------------8--------------------------]

section 2/bridge
[E--10----------------------------------------------------
B--11--(funky)-------------------------------------------
G--10----------------------------------------------------
D--------------------------------------------------------
A--------------------------------------------------------
E--------------------------------------------------------]

section 3/sax solo
[E--------------------------------------------------------
B--------------------------------------------------------
G--------------------------------------------------------]
[D--------------](rpt 6x, return to 1 section)
[A--------------------------------------------------------
E--------------------------------------------------------]
Другие песни: