АукцыонОсколки Текст, аккорды

0 Голосов
Вступление:
такой резкий бой на аккорде Am:
E|-5-5-5-5--5-5-|
B|-5-5-5-5--5-5-|
G|-5-5-5-5--5-5-|
D|-7-7-7-7------|
A|-7-7-7-7------|

потом играется бас примерно такой:
D|---2-3---3-3---|---2-3---3-3---|
A|-0-----0-----3-|-0-----0-----3-|

потом вступает такое вот соло:
D|-7-x-5-x-8-8-8-8---5-|-7-x-5-x-8-8-8-8---5-|
A|-----------------7---|-----------------7---|

вторая гитара:
(табы смещены, чтоб было понятно, где играть)
B|---------6-6-6-6-5---|---------6-6-6-6-5---|

потом опять резкий бой на Am - затем под бас поётся.
если играть на одной гитаре, то можно как-либо обыгрывать
этот аккорд, чтоб интересней было ;)

Am
Сон, приснилось мне,
Am
Что я воюю в чужой стране...

Проигрыш после этих строк (примерно):
Am Am
E|-5--5-5--------5--5-5--------|
B|-5--5-5--8-6-5-5--5-5--5-----|
G|-5--5-5--------5--5-5----7-5-|
D|-7-------------7-------------|
A|-7-------------7-------------|

Am
Враг, неравный бой,
Am
Я ранен в голову, я герой...

Тут опять проигрыш:
Am Am
E|-5--5-5--------5--5-5--------|
B|-5--5-5--8-6-5-5--5-5--5-----|
G|-5--5-5--------5--5-5----7-5-|
D|-7-------------7-------------|
A|-7-------------7-------------|

Припев: (аккорды играть по два удара каждый)
F5 C5
Но вот
B5 D5
Чувствую я
A5 D5 A5 C5
Это конец

F5 C5
Но вот
B5 D5
Я ухожу,
Am
Осколки
F5
Девичьих сердец
C5 B5 D5
Хрустят, у-у-у,
Am
У меня под ногами!

Далее проигрыш на басу:
D|---2-3---3-3---|---2-3---3-3---|
A|-0-----0-----3-|-0-----0-----3-|

Следующий куплет подыгрывается отрывистым боем на гитаре:
Am
Взрыв! И всё в огне!
Am
Я в красной шапке, я на коне.
Am
Сон, во сне борьба,
Am
Судьба народа - моя судьба!

Припев: (аккорды играть по два удара каждый)
F5 C5
Но вот
B5 D5
Чувствую я
A5 D5 A5 C5
Это конец

F5 C5
Но вот
B5 D5
Я ухожу,
Am
Осколки
F5
Девичьих сердец
C5 B5 D5
Хрустят, у-у-у,
Am
У меня под ногами!

Далее идёт длинный проигрыш, на концертах там имеется
примерно такой момент:
E|-5--5-5--5-6--3--|-5--5-5--5-6--3--|
B|-5--5-5--5-6--3--|-5--5-5--5-6--3--| }x так много раз

Потом:
E|-12--12-12--12-13--10-|-12--12-12--12-13--10-|
B|-10--10-10--10-11--8--|-10--10-10--10-11--8--| }x опять много раз

Перед финальным куплетом играется так (на альбомной
версии там ещё такой визг красивый "А-а-а, ха-ха!")
A A A A A# * A# * A# * A# *
A A A A A# * A# * A# * A# *

И идёт финальный припев: (аккорды играть по два удара каждый)
F5 C5
Но вот
B5 D5
Чувствую я
A5 D5 A5 C5
Это конец

F5 C5
Но вот
B5 D5
Я ухожу,
Am
Осколки
F5
Девичьих сердец
C5 B5 D5
Хрустят, у-у-у,
Am
У меня под ногами!
Другие песни: