Audio AdrenalineFree Ride Текст

0 Голосов
Title: Free Ride
Author/Artist: Audio Adrenaline
Album: Bloom
Transcribed by: Matt Blystone
Email: jblystone@texoma.net

This is a very simplistic version. To get the order
and lyrics look at the guitar tab.

------------------------------------------------------------------------------
------------------------------------------------------------------------------
---------7--------------------7-----------------------------------------------
-5--5-5---------5-5---5--5-5--------------------------------------------------
Intro:

------------------------------------------------------------------------------
------------------------------------------------------------------------------
-5-3----------0--------5-3---------0------------------------------------------
-----5-5--0h2---2-3-5------5-5-0h2---2-3-5------------------------------------
Verse:

------------------------------------------------------------------------------
------------------------------------------------------------------------------
----------------------5-5---------5-5-----------------------------------------
-2-2-3-3-5-5--2-2-3-3-----2-2-3-3---------------------------------------------
Chorus:

------------------------------------------------------------------------------
------------------------------------------------------------------------------
------------------------------------------------------------------------------
-3-4-5-2-3-3-4-5-3-5----------------------------------------------------------
8X
Другие песни: