Audio AdrenalineBig House Текст

0 Голосов
BIG HOUSE
Artist: Audio Adrenaline

Ok here's an awesome AudioA, even though they all are to me, but here it
is. If you have any question correction or anything email me @
scott1@usit.net

intro:
PLAY 4 TIMES
G|---------------------------------------------------|
D|---------------------------------------------------|
A|---------------------------------------------------|
E|--5-5-5-5-5-5-5-5---0-0-0-0-0-0-0-0----------------|

verse:
PLAY 4 TIMES
G|---------------------------------------------------|
D|---------------------------------------------------|
A|----------------------5-5-5-5---4------------------|
E|--5-5-5-5---2-2-2-2-----------------0--------------|

intro again only once though

verse play 4 times

chorus:

G|---------------------------------------------------|
D|---------------------------------------------------|
A|--------------------5-5-5-5------------------------|
E|--5-5-5-5--0-0-0-0-----------0-0-0-0--5-5-5-5-5----|
come and go with me, to my fathers house

G|----------------------------------------------------|
D|----------------------------------------------------|
A|--------------------5-5-5-5-------------------------|
E|--5-5-5-5--0-0-0-0-----------0-0-0-0--5-5-5-5-------|
come and go with me, to my fathers house

G|----------------------------------------------------|
D|----------------------------------------------------|
A|----------------------------5-5-5-5-5-5-------------|
E|----5-5-5--2-2--0-0-0-0-0------------------0-0------|
its a big, big house with lots and lots of room (and so on)

bridge: chords E A E I can't figure how many of each

verse: play 4 times

chorus: play 4 times
Scott Beavers
__
+|oo|+
+|oo|+
||
||
||
||
||
||
||
_ || _
_||_//
| [] |
| || |
/ []
______/
Другие песни: