ArcwelderCranberry Sauce Текст

0 Голосов
use dropped-D tuning (tune low E string down to D)

Intro (play twice)
[------------------------------------------------------------------
----------------------7--8--10--10--10---------------------10--10-
9--10--9--7--7--7--7--------------------5--7--9--10--9--7---------
------------------------------------------------------------------
------------------------------------------------------------------
------------------------------------------------------------------]

Octave riff 1 (play twice)
[------------------------------------------------------------------
------------------------------------------------------------------
9--10--9--7--7--7--7--11--12--14--14--14--7--9--10--9--7--14--14--
------------------------------------------------------------------
7--8---7--5--5--5--5--9---10--12--12--12--5--7--8---7--5--12--12--
0--0---0--0--0--0--0--0---0---0---0---0---0--0--0---0--0--0---0---]

chorus (play twice)

[-----------------------------------------------------------------
-----------------------------------------------------------------
-----------------------------------------------------------------
-----------------------------------------------------------------
0--0--0--0--0--0--4--5--7--7--7--7--7--7--7--7--0--0--0--0--0--0-
0--0--0--0--0--0--4--5--7--7--7--7--7--7--7--7--0--0--0--0--0--0-

-----------------------------------------------------------------
-----------------------------------------------------------------
-----------------------------------------------------------------
-----------------------------------------------------------------
4--5--10--10--10--10--10--10--10--10-----------------------------
4--5--10--10--10--10--10--10--10--10-----------------------------]

Octave riff 2
[-------------------------
-------------------------
22--21--19-----19--------
-------------------------
20--19--17-----17--------
-----------0---0---------]
first, play this 4 times)
[----------------------------------------------------------
----------------------------------------------------------
16--17--------14--15--------12--13---------9--10--9--7----
----------------------------------------------------------
14--15--------12--13--------10--11---------7--8---7--5----
--------0--0----------0--0----------0--0------------------]
(then, play this 4 times;
the fourth time, leave out the very last chord)

Chorus } 2x
Octave riff 1 } 2x
Chorus } 2x
Octave riff 2 } 2x
Chorus } 2x
[--------
--------
---7----]
the last chord sounds like [--------]
[---5----
---0----]
Другие песни: