Апина АленаСемечек стакан Текст

0 Голосов
Вступление:
Em Am B7 Em
e|-3-2h3-0--0h3-2h3-0--0-0-0-2-3-
b|------------------------4---0--
g|------------------------------- C7 B7
d|-------------------------------
a|-------------------------------
e|-------------------------------

Em Am B7 Em
e|-3-2h3-0--0h3-2h3-0--0-0-0-2-0--------
b|------------------------4---0---------
g|--------------------------------------
d|--------------------------------------
a|--------------------------------2-1-0-
e|--------------------------------------

Em Am B7 Em
e|-3-2h3-0--0h3-2h3-0--0-0-0-2-3-
b|------------------------4---0--
g|------------------------------- C7 B7
d|-------------------------------
a|-------------------------------
e|-------------------------------

Em Am B7 Em Em6
e|-3-2h3-0--0-3-2-0-0--0-0-0-2-0---------0-
b|------------------------4---0---0------2-
g|---------------------------------3-2-0-0- Em6
d|---------------------------------------2-
a|-----------------------------------------
e|-----------------------------------------

Em Am B7
Семечек стакан с подружкой купим мы
Em A#m-5 B7
И просто потрындим о том о сем, ага.
Em Am D/F#
Старенький баян вздохнет за речкой
G E7
О чем-то о своем и о моем.
Am
В нашем городке не спрятаться не скрыться,
Em
Сразу знают все - когда и что случится.
F#7 B7 C7 B7 C7 B7
Эхом по реке новости летят, в нашем городке.

Em Am B7
Семечек стакан с подружкой купим мы
Em A#m-5 B7
И я ей разболтаю обо всем.
Em Am D/F#
Новый мой роман все перепутал мне
G E7
И жизнь перевернулась кверху дном.
Am
Рыжий гитарист в поселке появился,
Em
Словно банный лист ко мне он прилепился,
F#7 B7 C7 B7 C7 B7
Да и я сама от него теперь - просто без ума.

Em Bm Am B7
А он такой - мой новый парень
Em Bm Am
Просто чумовой.
D Dm/F E7
Он на гитаре целый день готов
Am B7
Играть мне песни про любовь.
Em Bm Am B7
А он такой - мой новый парень
Em Bm Am
Просто чумовой.
D Dm/F E7
И нет красивей пары в городке
Am B7 Em
И там, в поселке на реке.

Em Am B7
Ой, не говори, ведь эта музыка жестокая
Em A#m-5 B7
Свела меня с ума, ага…
Em Am D/F#
Ой, не говори тропинкой узенькой
G E7
Я вечером бегу к нему сама
Am
В нашем городке, не спрятаться, не скрыться,
Em
Сразу знают все, кто мне ночами снится.
F#7 B7 C7 B7 C7 B7
А любви моей от роду пока только 10 дней.

Em Bm Am B7
А он такой - мой новый парень
Em Bm Am
Просто чумовой.
D Dm/F E7
Он на гитаре целый день готов
Am B7
Играть мне песни про любовь.
Em Bm Am B7
А он такой - мой новый парень
Em Bm Am
Просто чумовой.
D Dm/F E7
И нет красивей пары в городке
Am B7 Em
И там, в поселке на реке.

Проигрыш:
Em Am B7 Em
e|-3-2h3-0--0h3-2h3-0--0-0-0-2-3-
b|------------------------4---0--
g|------------------------------- C7 B7
d|-------------------------------
a|-------------------------------
e|-------------------------------

Em Am B7 Em
e|-3-2h3-0--3-2-0---0-0-0-2-0--
b|---------------------4---0---
g|-----------------------------
d|-----------------------------
a|-----------------------------
e|-----------------------------

Asus4 Em
e|---------0-3---3h5-3-5-3-5-3-0-
b|------0-3----------------------
g|-0-2-3-------------------------
d|-------------------------------
a|-------------------------------
e|-------------------------------

C9 B7
e|-3-0-3-3--7-7-5-7-7h5-3-0-0--3sl0-
b|-------------------------3--------
g|----------------------------------
d|----------------------------------
a|----------------------------------
e|----------------------------------

C9 B7
e|-3-0-3-3--7-7-5-7-7h5-3-0-0-
b|-------------------------3--
g|---------------------------- C7
d|----------------------------
a|----------------------------
e|----------------------------

Fm Cm A#m C7
А он такой - мой новый парень
Fm Cm A#m
Просто чумовой.
D# D#m/F# F7
Он на гитаре целый день готов
A#m C7
Играть мне песни про любовь.
Fm Cm A#m C7
А он такой - мой новый парень
Fm Cm A#m
Просто чумовой.
D# D#m/F# F7
И нет красивей пары в городке
A#m C7 Fm A#7 Fm A#7 Fm
И там, в поселке на реке.
Другие песни: