Anti-flagAngry Young And Poor Текст

0 Голосов
ANTI-FLAG-ANGRY, YOUNG, AND POOR

Tabbed By Ben H (PunkAsPhuck)

e--------------------------------|
B--------------------------------|
G--------4-----6-6---------4-----|
D--7--6--4--4--6-6---7--2--4--4--|
A--7--6--2--4--4-4---7--2--2--4--|
E--5--4-----2--------5--0-----2--|

solo
e---------------2-4-2-----2---------------------2-4-2-----------------------|
B-2-5-4-0-2-5-4-------5-4---5-4-5-2-5-4-0-2-5-4-------5-4-------------------|
G---------------------------------------------------------4~~~~~~-----------|
D---------------------------------------------------------------------------|
A---------------------------------------------------------------------------|
E---------------------------------------------------------------------------|

rhythym under solo
e----------------------------------------------------------------------|
B----------------------------------------------------------------------|
G--6-6-6-6-6-6-6-6------------------------------------4-4-4-4-4-4-4-4--|
D--6-6-6-6-6-6-6-6--7-7-7-7-7-7-7-7--2-2-2-2-2-2-2-2--4-4-4-4-4-4-4-4--|
A--4-4-4-4-4-4-4-4--7-7-7-7-7-7-7-7--2-2-2-2-2-2-2-2--2-2-2-2-2-2-2-2--|
E-------------------5-5-5-5-5-5-5-5--0-0-0-0-0-0-0-0-------------------|

verse
e----------------|----------------|
B----------------|----------------|
G--------4-----6-|--------4-----6-|
D--7--6--4--4--6-|--7--2--4--4--6-|
A--7--6--2--4--4-|--7--2--2--4--4-|
E--5--4-----2----|--5--0-----2----|

pre-chorus
e----------------------------------------------------------------------|
B----------------------------------------------------------------------|
G--6-6-6-6-6-6-6-6------------------------------------4-4-4-4-4-4-4-4--|
D--6-6-6-6-6-6-6-6--7-7-7-7-7-7-7-7--2-2-2-2-2-2-2-2--4-4-4-4-4-4-4-4--|
A--4-4-4-4-4-4-4-4--7-7-7-7-7-7-7-7--2-2-2-2-2-2-2-2--2-2-2-2-2-2-2-2--|
E-------------------5-5-5-5-5-5-5-5--0-0-0-0-0-0-0-0-------------------|

e------------------------------------|--9-9-----9-9-----9-9------|
B------------------------------------|------9-9-----9-9-----9-9--|
G--6-6-6-6-6-4-6-6-6-6-6-4-6-6-6-6-4-|---------------------------|
D------------------------------------|---------------------------|
A------------------------------------|---------------------------|
E------------------------------------|---------------------------|

chorus
e---------------------------------------------|
B---------------------------------------------|
G--6-6-6-6-6-----------------------4-4-4-4-4--|
D--6-6-6-6-6-7-7-7-7-7--2-2-2-2-2--4-4-4-4-4--|
A--4-4-4-4-4-7-7-7-7-7--2-2-2-2-2--2-2-2-2-2--|
E------------5-5-5-5-5--0-0-0-0-0-------------|

bridge
e----------------------------------------|
B----------------------------------------|
G--6--6-6-6---------------------4-4-4-4--|
D--6--6-6-6--7-7-7-7--2--2-2-2--4-4-4-4--|
A--4--4-4-4--7-7-7-7--2--2-2-2--2-2-2-2--|
E------------5-5-5-5--0--0-0-0-----------|

e------|-------------------------------------|
B------|-------------------------------------|
G--6---|---------------4---------------4-----|
D--6---|---------7--6--4--4------7--2--4--4--|
A--4---|---------7--6--2--4------7--2--2--4--|
E------|---------5--4-----2------5--0-----2--|
Другие песни: