AnthraxNice Fuckin Ballad Текст, аккорды

0 Голосов
Intro: G C Am D

G (fillin 1) C (fillin 2) Am
We fell in love at first sight, I can't explain the feelings
D (fillin 3)
when I first saw you...
We were so so happy a lifetime of love sweet honey child,
you'll always be mine...
But then I played the fool I never ment to hurt you of sleep
with all your friends....
In reconsile we found ourselfs, our love was ment to be,
Oh baby can't you see....Ohhh

You left me standing in the mud cring to myself,
a heart so full of pain.
But we found our love again, this time forever,
true love prevails overall...
G C (strum once) Then strum a palm muted Am once at end
She got hit by a truck...
(Basic Crying till fade)

fillin 1
G
[3-----3------
3-2-3---2-3-2
0------------
0------------
2------------
3------------]

fillin 2
C
[0---3--------
1-3---3-2-0-2
0------------
2------------
3------------
0------------]

fillin 3 (This one I know Is right.)
D/F#
[2----------------
3----------------
2-------0-----0--
0------0-----0---
0-----0-----0----
2-0-3-----2------]
Другие песни: