AnoukNobodys Wife Текст

0 Голосов
#----------------------------------PLEASE NOTE--------------------------------#

#This file is the author's own work and represents their interpretation of the#
#song. You may only use this file for private study, scholarship, or research.#
#-----------------------------------------------------------------------------#

Song : Nobody's Wife
Artist : Anouk
Album : Together Alone
Authors : Anouk Teeuwe, Bart van Veen, Satindra Kalpoe
Publisher : Bouncin'Balls / TBM INT.C.V.
------------------------------------------------------------------------------
Tabbed by : Richard de Jong / The Netherlands / Richard.Jong@TIP.NL
and Michael Sorensen / Denmark / 5b300800@UV.HERNHS.DK
Last Change : April 6th, 1998
==============================================================================
Thanks To Daniel Manderbacka and Martti Hertzen for their input and view off
this song.
==============================================================================
Note If you have any comments regarding the song please let us know.
==============================================================================
Legend h = Hammer On
p = Pull-Off
b = Bend
/ = Slide Up/Down
= Natural Harmonic
[5] = Artificial Harmonic
~ = Vibrato
tr = Trill
==============================================================================

Intro (Clean Guitar)
1 2 3 4 1 2 3 4 1 2 3 4 1 2 3 4
Em C Am G D/F#
E[----------0-----|----------------|----------------|----------------]
B[------0-------0-|------3---------|------0---1---0-|----------------]
G[----------------|----------0-----|----------------|------0---2---0-]
D[----2-----------|----2---------0-|----2-----------|----0-------0---]
A[----------------|3---------------|0---------------|----------------]
E[0---------------|----------------|----------------|3-------2-------]

Em C Am G D/F#
E[----------0-----|----------------|----------------|----------------]
B[------0-------0-|------3---------|------0---1---0-|----------------]
G[----------------|----------0-----|----------------|------0---2---0-]
D[----2-----------|----2---------0-|----2-----------|----0-------0---]
A[----------------|3---------------|0---------------|----------------]
E[0---------------|----------------|----------------|3-------2-------]
I am

Em C Am G D/F#
E[----------0-----|----------------|----------------|----------------]
B[------0-------0-|------3---------|------0---1---0-|----------------]
G[----------------|----------0-----|----------------|------0---2---0-]
D[----2-----------|----2---------0-|----2-----------|----0-------0---]
A[----------------|3---------------|0---------------|----------------]
E[0---------------|----------------|----------------|3-------2-------]
sorry for the times scream For the times
that I made you that I killed your

Em C Am G D/F#
E[----------0-----|----------------|----------------|----------------]
B[------0-------0-|------3---------|------0---1---0-|----------------]
G[----------------|----------0-----|----------------|------0---2---0-]
D[----2-----------|----2---------0-|----2-----------|----0-------0---]
A[----------------|3---------------|0---------------|----------------]
E[0---------------|----------------|----------------|3-------2-------]
dreams For the times whole world rumble
that I made your

{bass enter}
Em C Am G D/F#
E[----------0-----|----------------|----------------|----------------]
B[------0-------0-|------3---------|------0---1---0-|----------------]
G[----------------|----------0-----|----------------|------0---2---0-]
D[----2-----------|----2---------0-|----2-----------|----0-------0---]
A[----------------|3---------------|0---------------|----------------]
E[0---------------|----------------|----------------|3-------2-------]
For the times cry For the times
that I made you that I told you

{distortion guitar}
Em C F
E[----------0-----|----------------|----------------|----------------]
B[------0-------0-|------3---------|1---------------|----------------]
G[----------------|----------0-----|2---------------|----------------]
D[----2-----------|----2-----------|3---------------|----------------]
A[----------------|3---------------|3---------------|----------------]
E[0---------------|----------------|----------------|----------------]
lies For the times let you stumble
that I watched and

{drums enter}
E[----------------|----------------]
B[----------------|----------------]
G[----------------|----------------]
D[----------------|----------------]
A[----------------|----------------]
E[----------------|----------------]
It's to
{distortion guitar}
Em C Am G D
E[----------------|----------------|----------------|----------------]
B[----------------|----------------|----------------|----------------]
G[9---9---x---x-x-|5---5---x---x-x-|7-7--7-7----7-7-|3------7--------]
D[9---9---x---x-x-|5---5---x---x-x-|7-7--7-7----7-7-|5------7--------]
A[7---7---x---x-x-|3---3---x---x-x-|5-5--5-5----5-5-|5------5--------]
E[----------------|----------------|----------------|----------------]
bad but me What
that's goes a-

Em C Am G D
E[----------------|----------------|----------------|----------------]
B[----------------|----------------|----------------|----------------]
G[9---9---x---x-x-|5---5---x---x-x-|----------------|----------------]
D[9---9---x---x-x-|5---5---x---x-x-|7-7--7-7----7-7-|3------7--------]
A[7---7---x---x-x-|3---3---x---x-x-|7-7--7-7----7-7-|5------7--------]
E[----------------|----------------|5-5--5-5----5-5-|5------5--------]
round comes around you'll see That I can

Am D G C
E[----------------|----------------|----------------|----------------]
B[----------------|----------------|----------------|----------------]
G[----------------|7-----------x-x-|----------------|5-----------x-x-]
D[7-----------x-x-|7-----------x-x-|5------x----x-x-|5-----------x-x-]
A[7-----------x-x-|5-----------x-x-|5------x----x-x-|3-----------x-x-]
E[5-----------x-x-|----------------|3------x----x-x-|----------------]
carry the burden of pain
Cause it ain't the

Am D G C
E[----------------|----------------|----------------|----------------]
B[----------------|----------------|----------------|----------------]
G[----------------|7-----------x-x-|----------------|5-----------x-x-]
D[7-----------x-x-|7-----------x-x-|5------x----x-x-|5-----------x-x-]
A[7-----------x-x-|5-----------x-x-|5------x----x-x-|3-----------x-x-]
E[5-----------x-x-|----------------|3------x----x-x-|----------------]
first time that a man goes insane
When I spread

Am D G C
E[----------------|----------------|----------------|----------------]
B[----------------|----------------|----------------|----------------]
G[----------------|7-----------x-x-|----------------|5-----------x-x-]
D[7-----------x-x-|7-----------x-x-|5------x----x-x-|5-----------x-x-]
A[7-----------x-x-|5-----------x-x-|5------x----x-x-|3-----------x-x-]
E[5-----------x-x-|----------------|3------x----x-x-|----------------]
my wings to embrace him for live
Sucking out his

Am D G C
E[----------------|----------------|----------------|----------------]
B[----------------|----------------|----------------|----------------]
G[----------------|7-----------x-x-|----------------|5---------------]
D[7-----------x-x-|7-----------x-x-|5---------------|5---------------]
A[7-----------x-x-|5-----------x-x-|5---------------|3---------------]
E[5-----------x-x-|----------------|3---------------|----------------]
love ah, I'll never be nobody's wife

{clean guitar}
Em C Am G D/F#
E[----------0-----|----------------|----------------|----------------]
B[------0-------0-|------3---------|------0---1---0-|----------------]
G[----------------|----------0-----|----------------|------0---2-----]
D[----2-----------|----2---------0-|----2-----------|----0---------0-]
A[----------------|3---------------|0---------------|----------------]
E[0---------------|----------------|----------------|3-------2-------]
ya ya ya ya ya ya ya

Em C Am G D/F#
E[----------0-----|----------------|----------------|----------------]
B[------0-------0-|------3---------|------0---1---0-|----------------]
G[----------------|----------0-----|----------------|------0---2---0-]
D[----2-----------|----2---------0-|----2-----------|----0-------0---]
A[----------------|3---------------|0---------------|----------------]
E[0---------------|----------------|----------------|3-------2-------]
I am

Em C Am G D/F#
E[----------0-----|----------------|----------------|----------------]
B[------0-------0-|------3---------|------0---1---0-|----------------]
G[----------------|----------0-----|----------------|------0---2---0-]
D[----2-----------|----2---------0-|----2-----------|----0-------0---]
A[----------------|3---------------|0---------------|----------------]
E[0---------------|----------------|----------------|3-------2-------]
sorry for the times home Left you lying
that I didn't come in that bed a-

Em C Am G D/F#
E[----------0-----|----------------|----------------|----------------]
B[------0-------0-|------3---------|------0---1---0-|----------------]
G[----------------|----------0-----|----------------|------0---2---0-]
D[----2-----------|----2---------0-|----2-----------|----0-------0---]
A[----------------|3---------------|0---------------|----------------]
E[0---------------|----------------|----------------|3-------2-------]
lone Flying high in the needed my shoulder
sky when you

Em C Am G D/F#
E[----------0-----|----------------|----------------|----------------]
B[------0-------0-|------3---------|------0---1---0-|----------------]
G[----------------|----------0-----|----------------|------0---2---0-]
D[----2-----------|----2---------0-|----2-----------|----0-------0---]
A[----------------|3---------------|0---------------|----------------]
E[0---------------|----------------|----------------|3-------2-------]
You're like a stone neck, see cut it loose
hanging round my before if breaks my

Em C Am G D/F#
E[----------0-----|----------------|----------------|----------------]
B[------0-------0-|------3---------|------0---1---0-|----------------]
G[----------------|----------0-----|----------------|------0---2---0-]
D[----2-----------|----2---------0-|----2-----------|----0-------0---]
A[----------------|3---------------|0---------------|----------------]
E[0---------------|----------------|----------------|3-------2-------]
back, see say what I I grow older
I've gotta feel before

Em C Am G D/F#
E[----------0-----|----------------|----------------|----------------]
B[------0-------0-|------3---------|------0---1---0-|----------------]
G[----------------|----------0-----|----------------|------0---2---0-]
D[----2-----------|----2---------0-|----2-----------|----0-------0---]
A[----------------|3---------------|0---------------|----------------]
E[0---------------|----------------|----------------|3-------2-------]
Sorry, but it ain't ways tried but
gonna change my You know I've I'm still the

{distortion guitar}
Em C F
E[----------0-----|----------------|----------------|----------------]
B[------0-------0-|------3---------|1---------------|----------------]
G[----------------|----------0-----|2---------------|----------------]
D[----2-----------|----2-----------|3---------------|----------------]
A[----------------|3---------------|3---------------|----------------]
E[0---------------|----------------|----------------|----------------]
same I've got to do it my way

E[----------------|----------------]
B[----------------|----------------]
G[----------------|----------------]
D[----------------|----------------]
A[----------------|----------------]
E[----------------|----------------]
yeah It's to

{distortion guitar}
Em C Am G D
E[----------------|----------------|----------------|----------------]
B[----------------|----------------|----------------|----------------]
G[9---9---x---x-x-|5---5---x---x-x-|7-7--7-7----7-7-|3------7--------]
D[9---9---x---x-x-|5---5---x---x-x-|7-7--7-7----7-7-|5------7--------]
A[7---7---x---x-x-|3---3---x---x-x-|5-5--5-5----5-5-|5------5--------]
E[----------------|----------------|----------------|----------------]
bad but hey that's me What
goes a-

Em C Am G D
E[----------------|----------------|----------------|----------------]
B[----------------|----------------|----------------|----------------]
G[9---9---x---x-x-|5---5---x---x-x-|----------------|----------------]
D[9---9---x---x-x-|5---5---x---x-x-|7-7--7-7----7-7-|3------7--------]
A[7---7---x---x-x-|3---3---x---x-x-|7-7--7-7----7-7-|5------7--------]
E[----------------|----------------|5-5--5-5----5-5-|5------5--------]
round comes around you'll see That I can

Am D G C
E[----------------|----------------|----------------|----------------]
B[----------------|----------------|----------------|----------------]
G[----------------|7-----------x-x-|----------------|5-----------x-x-]
D[7-----------x-x-|7-----------x-x-|5------x----x-x-|5-----------x-x-]
A[7-----------x-x-|5-----------x-x-|5------x----x-x-|3-----------x-x-]
E[5-----------x-x-|----------------|3------x----x-x-|----------------]
carry the burden of pain
Cause it ain't the

Am D G C
E[----------------|----------------|----------------|----------------]
B[----------------|----------------|----------------|----------------]
G[----------------|7-----------x-x-|----------------|5-----------x-x-]
D[7-----------x-x-|7-----------x-x-|5------x----x-x-|5-----------x-x-]
A[7-----------x-x-|5-----------x-x-|5------x----x-x-|3-----------x-x-]
E[5-----------x-x-|----------------|3------x----x-x-|----------------]
first time now that a man goes insane
When I spread

Am D G C
E[----------------|----------------|----------------|----------------]
B[----------------|----------------|----------------|----------------]
G[----------------|7-----------x-x-|----------------|5-----------x-x-]
D[7-----------x-x-|7-----------x-x-|5------x----x-x-|5-----------x-x-]
A[7-----------x-x-|5-----------x-x-|5------x----x-x-|3-----------x-x-]
E[5-----------x-x-|----------------|3------x----x-x-|----------------]
my wings to embrace him for live
Sucking out his

Am D G C
E[----------------|----------------|----------------|----------------]
B[----------------|----------------|----------------|----------------]
G[----------------|7-----------x-x-|----------------|5---------------]
D[7-----------x-x-|7-----------x-x-|5---------------|5---------------]
A[7-----------x-x-|5-----------x-x-|5---------------|3---------------]
E[5-----------x-x-|----------------|3---------------|----------------]
love ah, I'll never be nobody's wife


1 2 3 4
Em
E[-------------------------------------------------------------------]
B[15b17----------------------------15b17-----------------------------]
G[-------------------------------------------------------------------]
D[-------------------------------------------------------------------]
A[-------------------------------------------------------------------]
E[-------------------------------------------------------------------]

C
E[-------------------------------------------------------------------]
B[-------------------------------------------------------------------]
G[-------------------------------------------------------------------]
D[-------------------------------------------------------------------]
A[-------------------------------------------------------------------]
E[-------------------------------------------------------------------]

Am
E[-------------------------------------------------------------------]
B[-------------------------------------------------------------------]
G[-------------------------------------------------------------------]
D[-------------------------------------------------------------------]
A[-------------------------------------------------------------------]
E[-------------------------------------------------------------------]

G D
E[-------------------------------------------------------------------]
B[-------------------------------------------------------------------]
G[-------------------------------------------------------------------]
D[-------------------------------------------------------------------]
A[-------------------------------------------------------------------]
E[-------------------------------------------------------------------]

Em
E[-------------------------------------------------------------------]
B[-------------------------------------------------------------------]
G[-------------------------------------------------------------------]
D[-------------------------------------------------------------------]
A[-------------------------------------------------------------------]
E[-------------------------------------------------------------------]

C
E[-------------------------------------------------------------------]
B[-------------------------------------------------------------------]
G[-------------------------------------------------------------------]
D[-------------------------------------------------------------------]
A[-------------------------------------------------------------------]
E[-------------------------------------------------------------------]

Am
E[-------------------------------------------------------------------]
B[-------------------------------------------------------------------]
G[-------------------------------------------------------------------]
D[-------------------------------------------------------------------]
A[-------------------------------------------------------------------]
E[-------------------------------------------------------------------]

G D
E[-------------------------------------------------------------------]
B[-------------------------------------------------------------------]
G[-------------------------------------------------------------------]
D[-------------------------------------------------------------------]
A[-------------------------------------------------------------------]
E[-------------------------------------------------------------------]

Em
E[-------------------------------------------------------------------]
B[-------------------------------------------------------------------]
G[-------------------------------------------------------------------]
D[-------------------------------------------------------------------]
A[-------------------------------------------------------------------]
E[-------------------------------------------------------------------]

C
E[-------------------------------------------------------------------]
B[-------------------------------------------------------------------]
G[-------------------------------------------------------------------]
D[-------------------------------------------------------------------]
A[-------------------------------------------------------------------]
E[-------------------------------------------------------------------]

Am
E[-------------------------------------------------------------------]
B[-------------------------------------------------------------------]
G[-------------------------------------------------------------------]
D[-------------------------------------------------------------------]
A[-------------------------------------------------------------------]
E[-------------------------------------------------------------------]

G D
E[-------------------------------------------------------------------]
B[-------------------------------------------------------------------]
G[-------------------------------------------------------------------]
D[-------------------------------------------------------------------]
A[-------------------------------------------------------------------]
E[-------------------------------------------------------------------]

Em
E[-------------------------------------------------------------------]
B[-------------------------------------------------------------------]
G[-------------------------------------------------------------------]
D[-------------------------------------------------------------------]
A[-------------------------------------------------------------------]
E[-------------------------------------------------------------------]

C
E[-------------------------------------------------------------------]
B[-------------------------------------------------------------------]
G[-------------------------------------------------------------------]
D[-------------------------------------------------------------------]
A[-------------------------------------------------------------------]
E[-------------------------------------------------------------------]

Am
E[-------------------------------------------------------------------]
B[-------------------------------------------------------------------]
G[-------------------------------------------------------------------]
D[-------------------------------------------------------------------]
A[-------------------------------------------------------------------]
E[-------------------------------------------------------------------]

G D
E[-------------------------------------------------------------------]
B[-------------------------------------------------------------------]
G[-------------------------------------------------------------------]
D[-------------------------------------------------------------------]
A[-------------------------------------------------------------------]
E[-------------------------------------------------------------------]
It's to

Em C Am G D
E[----------------|----------------|----------------|----------------]
B[----------------|----------------|----------------|----------------]
G[9---9---x---x-x-|5---5---x---x-x-|7-7--7-7----7-7-|3------7--------]
D[9---9---x---x-x-|5---5---x---x-x-|7-7--7-7----7-7-|5------7--------]
A[7---7---x---x-x-|3---3---x---x-x-|5-5--5-5----5-5-|5------5--------]
E[----------------|----------------|----------------|----------------]
bad but hey that's me What
goes a-

Em C Am G D
E[----------------|----------------|----------------|----------------]
B[----------------|----------------|----------------|----------------]
G[9---9---x---x-x-|5---5---x---x-x-|----------------|----------------]
D[9---9---x---x-x-|5---5---x---x-x-|7-7--7-7----7-7-|3------7--------]
A[7---7---x---x-x-|3---3---x---x-x-|7-7--7-7----7-7-|5------7--------]
E[----------------|----------------|5-5--5-5----5-5-|5------5--------]
round comes around you'll see That I can

Am D G C
E[----------------|----------------|----------------|----------------]
B[----------------|----------------|----------------|----------------]
G[----------------|7-----------x-x-|----------------|5-----------x-x-]
D[7-----------x-x-|7-----------x-x-|5------x----x-x-|5-----------x-x-]
A[7-----------x-x-|5-----------x-x-|5------x----x-x-|3-----------x-x-]
E[5-----------x-x-|----------------|3------x----x-x-|----------------]
carry the burden of pain
Cause it ain't the

Am D G C
E[----------------|----------------|----------------|----------------]
B[----------------|----------------|----------------|----------------]
G[----------------|7-----------x-x-|----------------|5-----------x-x-]
D[7-----------x-x-|7-----------x-x-|5------x----x-x-|5-----------x-x-]
A[7-----------x-x-|5-----------x-x-|5------x----x-x-|3-----------x-x-]
E[5-----------x-x-|----------------|3------x----x-x-|----------------]
first time oh now that a man goes insane
cause
when I spread my

Am D G C
E[----------------|----------------|----------------|----------------]
B[----------------|----------------|----------------|----------------]
G[----------------|7-----------x-x-|----------------|5-----------x-x-]
D[7-----------x-x-|7-----------x-x-|5------x----x-x-|5-----------x-x-]
A[7-----------x-x-|5-----------x-x-|5------x----x-x-|3-----------x-x-]
E[5-----------x-x-|----------------|3------x----x-x-|----------------]
wings to em- brace him for live
Sucking out his

Am D G C
E[----------------|----------------|----------------|----------------]
B[----------------|----------------|----------------|----------------]
G[------------7x--|----------------|----------------|5---------------]
D[----7x------7x--|----------------|5---------------|5---------------]
A[----7x------5x--|----------------|5---------------|3---------------]
E[----5x----------|----------------|3---------------|----------------]
love I, I'll never be nobody's wife

Em C Am G D
E[----------------|----------------|----------------|----------------]
B[----------------|----------------|----------------|----------------]
G[9---9---x---x-x-|5---5---x---x-x-|7-7--7-7----7-7-|3------7--------]
D[9---9---x---x-x-|5---5---x---x-x-|7-7--7-7----7-7-|5------7--------]
A[7---7---x---x-x-|3---3---x---x-x-|5-5--5-5----5-5-|5------5--------]
E[----------------|----------------|----------------|----------------]
yeah I'll never never
never be be gonna

Em C Am G D
E[----------------|----------------|----------------|----------------]
B[----------------|----------------|----------------|----------------]
G[9---9---x---x-x-|5---5---x---x-x-|----------------|----------------]
D[9---9---x---x-x-|5---5---x---x-x-|7-7--7-7----7-7-|3------7--------]
A[7---7---x---x-x-|3---3---x---x-x-|7-7--7-7----7-7-|5------7--------]
E[----------------|----------------|5-5--5-5----5-5-|5------5--------]
be never never gonna be nobody's wife
gonna be

Em C Am G D
E[----------------|----------------|----------------|----------------]
B[----------------|----------------|----------------|----------------]
G[9---9---x---x-x-|5---5---x---x-x-|7-7--7-7----7-7-|3------7--------]
D[9---9---x---x-x-|5---5---x---x-x-|7-7--7-7----7-7-|5------7--------]
A[7---7---x---x-x-|3---3---x---x-x-|5-5--5-5----5-5-|5------5--------]
E[----------------|----------------|----------------|----------------]
No- bo- dy yeah No- bo- dy yeah

Em C Am G D {fade}
E[----------------|----------------|----------------|----------------]
B[----------------|----------------|----------------|----------------]
G[9---9---x---x-x-|5---5---x---x-x-|----------------|----------------]
D[9---9---x---x-x-|5---5---x---x-x-|7-7--7-7----7-7-|3------7--------]
A[7---7---x---x-x-|3---3---x---x-x-|7-7--7-7----7-7-|5------7--------]
E[----------------|----------------|5-5--5-5----5-5-|5------5--------]
No No I'll never never
gonna be gonna be



Richard de Jong
Richard.Jong@TIP.NL
Другие песни: