Андрей АлексинПьяная Текст

0 Голосов
Intro:
e|---------------------------------------------------------------------------------------|
B|---------------------------------------------------------------------------------------|
G|---------------------------2-----2-----2-----2-----------------------4/6--4--2--4--2--1|
D|-------------4--4---2--4------4-----4-----4-----4-------------4--4---------------------|
A|---3/5--7---------------------------------------------3/5--7---------------------------|
e|---------------------------------------------------------------------------------------|

e|-------------2--2-----2----5--2--5--2--5--2--5--2-------------2--2---7/9--7--5--7--5--4|
B|---1/3--5----------5---------------------------------1/3--5----------------------------|
G|---------------------------------------------------------------------------------------|
D|---------------------------------------------------------------------------------------|
A|---------------------------------------------------------------------------------------|
e|---------------------------------------------------------------------------------------|

F#m Bm E
Ходиит по улице девочка пьяная - а
F#m Bm E
Сильно растрепано платеце рваное - э
F#m Bm E
И расплелись в волосах бантики - и
F#m Bm E
Ириски жует бросает фантики - и

Пред-припев:
Dm
Смотрят прохожие
A
Какая - то странная
Bm
Но видно по роже ведь
E
Она пьяная, пьяная

Припев:
F#m D Bm E
Пьяная пьяная пьяная пьяная - я
F#m D Bm E
Пьяная пьяная пьяная пьяная - я

F#m Bm E
Где эта девочка так уделала - ась
F#m Bm E
О чем она думала на что надеяла - сь
F#m Bm E
И не поймешь она веселая или грустна - я
F#m Bm E
Зачем напилась наверное водка вкусная

Пред-припев:
Dm
Смотрят прохожие
A
Какая - то странная
Bm
Но видно по роже ведь
E
Она пьяная, пьяная

Припев:
F#m D Bm E
Пьяная пьяная пьяная пьяная - я
F#m D Bm E
Пьяная пьяная пьяная пьяная - я
Другие песни: