AnathemaThe Beloved Текст, аккорды

0 Голосов
1st:
[-0--0-----0-------------------------------------------
-3-----3-----3--1----1p0---1p0---0---0---0------------
-------------------------------2-------2---2-0-2------
------------------------------------------------------
------------------------------------------------------
------------------------------------------------------]

after "...my silent cries" :
[-------------------------------------------------] somewhere pluck the sring
[------------1--1-1--0----------------------------] more times
[-0--0-0--2---------------------------------------
-----------------------5s4-4-4--2-2------2-2-4---
-------------------------------------------------
-------------------------------------------------]
Другие песни: