AnathemaTemporary peace Текст, аккорды

0 Голосов
Tunning: [D G C F A d]

Riff 1:
electric clean. little change at 1:40
-----------------0----------------------------------------------
---1-----------------------1------------------------------------
-------2-----3-----------------2-----3---0---3------------------
-0---0-----0---0---------0---0-----0---0---0---0----------------
----------------------------------------------------------------
----------------------------------------------------------------

after beginning section of bass, just play chords:
D9 A#
-0------1-------------------------------------------------------
-1------3-------------------------------------------------------
-2------3-------------------------------------------------------
-0------0-------------------------------------------------------
----------------------------------------------------------------
----------------------------------------------------------------

2:28 just chords
acoustic plays chords: F Dm Am A# Dm F Am A# ...
(F and Dm are changing)
electric: arpegio
--5-----5-----5----6----------------------------------------------
--6-----6-----5----6----------------------------------------------
--5-----7-----5----7----------------------------------------------
--7-----7-----7----8-----etc.-------------------------------------
--8-----5-----7----8----------------------------------------------
--------------5----6----------------------------------------------
Ending: some interlude...

-

List of chords used in the song
[E--3--3---3--4-
B--4--3---3--4-
G--5--3---3--5-
D--5--1---5--6-
A--3------5--6-
E---------3--4-]
Cm D#+7 Gm G#

Main riff:
Clean guitar
[E-------------------------------------------
B-------------------------------3-----------
G-----3-------------------------------------
D------------5-----------6------------------
A--3-----3-----------3-------3--------------
E-------------------------------------------]
Riff 1 Riff 2

While Vinnie sings these are the chords:
R1 R2 R1 R2
R1 R2 R1 R2
R1 R2 R1 R2
R1 R2 R1 R2

(When drums begins to play, play three times the main riff
and the fourth the riff is):
[E--------------------------------------
B--------------------------------------
G-----3--------------------------------
D------------5----------6----3---6---5-
A--3-----3----------3------3-----------
E--------------------------------------]

(While first guitar stills playing the main riff
a second acoustic guitar plays these chords):
[E--3--3--3--3--3--3--3--3--3-----3--3--3--3--3--3--3--3--3--3---
B--3--3--3--3--3--3--3--3--3-----3--3--3--3--3--3--3--3--3--3---
G--5--5--5--5--5--5--5--5--5-----5--5--5--5--5--5--5--5--5--5---
D--5--5--5--5--5--5--5--5--5-----6--6--6--6--6--6--6--6--6--6---
A--3--3--3--3--3--3--3--3--3-----3--3--3--3--3--3--3--3--3--3---
E---------------------------------------------------------------]

While Vinnie sings these are the chords:
R1 R2 R1 R2
R1 R2 R1 R2
R1 R2 R1 R2
R1 R2 R1 R2

(The first guitar plays)
[E-----------3---------------3---------------3-------------4--
B-----------4-------------3-----------------3-------------4--
G--------5--------------3-------------------3-------------5--
D-----5-------------1--------------------5-------------6-----
A--3----------------------------------5-------------6--------
E----------------------------------3-------------4-----------]
Cm D#+7 Gm G#

You can play D#+7 like this if you prefer.
[E---------------
B-----------8---
G---------7-----
D-------8-------
A-----6---------
E---------------]

(The second guitar plays Cm D#+7 Gm G# chords
while Vinnie is singing)
Cm D#+7 Gm G#
The songs ends --> G# Cm G#

And doing some stuff like these with 310 ms delay:
[E---------------
B---3h4---3h4---
G-------5-----5-
D---------------
A---------------
E---------------

E---------------
B---4p3---4p3---
G-------3-----3-
D---------------
A---------------
E---------------

E----------------------------------------------
B----------------------------------------------
G----------------------------------------------
D--5--5--5--5--5--5/6--6/8-8/10-108-86--65--
A----------------------------------------------
E----------------------------------------------]

The final acoustic guitar plays
[E------------------------------
B----------3----------------3--
G-----3---------------3--------
D--------5---------------6-----
A--3---------------3-----------
E------------------------------]
Другие песни: