AnathemaPitiless (bass) Текст, аккорды

0 Голосов
[G----------------------
D----------------------
A--7-----10-----6------ } x4
E----------------------

G----------------------
D----------------------
A--3----2--------------
E----------------------

G----------------------
D----------------------
A--3----6--------------
E----------------------

G----------------------
D----------------------
A--7-----10-----6------ } x2
E----------------------

G----------------------
D----------------------
A--3----2--------------
E----------------------

G----------------------
D----------------------
A--3-------6--7--------
E----------------------

G----------------------
D----------------------
A--7-------------3--6--
E----------------------

G----------------------
D----------------------
A--7-----10-----6------ } x2
E----------------------

G----------------------
D----------------------
A--3----2--------------
E----------------------

G----------------------
D----------------------
A--3----6--------------
E----------------------]
Другие песни: