AnathemaPanic Текст, аккорды

0 Голосов
Chords used in the song:
[E--5--5--1--3----
B--6--5--3--5----
G--7--7--3--5----
D--7--7--3--5--5-
A--5--5--1--3--5-
E--------------3-]
Dm D Bb C G5

Clean guitar
[E-------------------------------------------------------------------
B-------------------------------------------------------------------
G-------------------------------------------------------------------
D---7-7-7-7-7-7-7-7-5-5-5-5-5-5-5-5-3-3-3-3-3-3-3-3-3-3-3-3-3-3-3-3-
A--5-5-5-5-5-5-5-5-5-5-5-5-5-5-5-5-1-1-1-1-1-1-1-1-1-1-1-1-1-1-1-1--
E-------------------------------------------------------------------

E-------------------------------------------------------------------
B-------------------------------------------------------------------
G-------------------------------------------------------------------
D---7-7-7-7-7-7-7-7-5-5-5-5-7-7-8-8---------------------------------
A--5-5-5-5-5-5-5-5-5-5-5-5-5-5-5-5--5-5-5-5-5-5-5-5-5-5-5-5-5-5-5-5-
E----------------------------------3-3-3-3-3-3-3-3-3-3-3-3-3-3-3-3--]
(Guitar with distortion)
Dm D Bb Dm C G5
Dm D Bb Dm C G5

Chorus riff
[E------------------------------------------------
B------------------------------------------------
G--5-5-5--2-2--2--5-5-5--2-2--2----7----7-----7--
D--3-3-3--3-3--3--3-3-3--3-3--3----7----7-----7-- } x4
A--1-1-1--1-1--1--3-3-3--3-3--3--5-5--5-5-5-5-5--
E--------------------------------5----5---5-5----]
Dm
(Put the jack in and out the guitar
Solo guitar to make this effect)
[E---------------------------------------------------------------------
B--3..../10.....8.......3.......(6)(6)(6)(6)(6)(6)(6)(6)(6)(6)------
G---------------------------------------------------------------------
D---------------------------------------------------------------------
A---------------------------------------------------------------------
E---------------------------------------------------------------------]

Dm D Bb Dm C G5
Dm D Bb Dm C G5
(With chorus riff)
Другие песни: