AnathemaLeave No Trace Текст, аккорды

0 Голосов
Electric guitar with distortion playing a noisy F#m chord
[E ----------------
B -----------2----
G -------------0--
D -4--4-4-4------4
A -4--4-4-4-------
E -2--2-2-2-------]
Acoustic guitar (multiple strokes) & clean guitar
(one stroke per chord)
Bm F#m
Acoustic guitar (multiple strokes) & clean guitar (chord arpegio)
Example of arpegio (G chord)
[E -------3-----
B ---------3---
G -----------4-
D -----5-------
A ---5---------
E -3-----------]

Chorus:
G Bm G D A
G Bm G D F#m
Bm F#m

Chorus:
G Bm G D A
G Bm G D F#m

The song ends with Bm C#m D Em G A chords played by acoustic guitar
(multiple strokes) and clean guitar with flanger
(chord arpegio) while Vinnie and Danny sing "No future...".
There is other acoustic guitar playing this:
[E -----------------------------------------------------------------
B -----------------------------------------------------------------
G -----------------------------------------------------------------
D -----------------------------------------------------------------
A -5-5-5-5-5-5-7-7-7-7-7-7-9--9--9--9--9--9--9--10-10-10-10-10-10--
E -7-7-7-7-7-7-9-9-9-9-9-9-10-10-10-10-10-10-10-12-12-12-12-12-12--

E -------------------------
B -------------------------
G -------------------------
D -------------------------
A -2-2-2-2-2-2-2-2-2-4-4-4-
E -3-3-3-3-3-3-3-3-3-5-5-5-]
The last chord is Bm with this riff
[E ------------------
B ------------------
G ----------------0-
D -----11-12-11-----
A ---9--------------
E -7------------7---]

Text:
Born to the glare of senses
spoofed reality infused
a new inherent passive contentment
you are so easily amused

Here and now we
are gone in a happy
a dream in the passage
your time
chances are fading
world isn't waiting
the moment is passing
you by

Questions lie beneath the surface
the fools are fooled once again
a benign concinence we stole our existence
and gladly cast it to the wind

Here and now we
are gone in a happy
a dream in the passage
your time
chances are fading
world isn't waiting
the moment is passing
you by
Другие песни: