AnathemaFragile Dreams Текст, аккорды

0 Голосов
[G----------------------
D----------------------
A-------6---------6---- } x2
E--3---------3---------

G------------------------
D------------------------
A--3----1---------1------ } x2
E------------3------1----

G------------------------
D------------------------
A--3----6----8----10-----
E------------------------

G------------------------
D------------------------
A------------------------ } x4
E--3----5----6----8------

G------------------------
D------------------------
A------------------------ } x4
E--3----1----8----6------

G------------------------
D------------------------
A------------------------ } x4
E--3----5----6----8------

G------------------------
D------------------------
A------------------------ } x3
E--3----1----8----6------

G------------------------
D------------------------
A------------6----8------
E--3----1----------------

G----------------------
D----------------------
A-------6---------6----
E--3---------3---------

G---------------------------------
D-------0-------------------------
A--3------3--1-0-1-0------------1- } x2
E--------------------1-3----6-1---

G------------------------
D------------------------
A--3----6----8----10-----
E------------------------]
Другие песни: