AnathemaEternity Текст, аккорды

0 Голосов
Eternity Part I

0:00 - 0:27 play 4 times
[----------------------------------------------------------------------
----------------------------------------------------------------------
-5-5-5-5-5-5-5-5--5-5-5-5-5-5-5-5--5-5-5-5-5-5-5-5--5-5-5-5-5-5-5-5---
-7-7-7-7-7-7-7-7--7-7-7-7-7-7-7-7--7-7-7-7-7-7-7-7--7-7-7-7-7-7-7-7---
-0-0-0-0-0-0-0-0--8-8-8-8-8-8-8-8--7-7-7-7-7-7-7-7--8-8-8-8-8-8-8-8---
----------------------------------------------------------------------]

0:28 - 0:52 play 4 times
[--------------------------------------------------
--------------------------------------------------
--------------------------------------------------
-7--7-9-10--10--3-3-3-3-3--2-2-2-2-2--3-3-3-3-3---
-7--7-9-10--10--3-3-3-3-3--2-2-2-2-2--3-3-3-3-3---
-5--5-7-8---8---1-1-1-1-1--0-0-0-0-0--1-1-1-1-1---]

0:53 - 2:31 play 3x16 times
[-----------------------
-------0-------0-------
---5-------5-------5---
-7---7-------7---------
-----------------------
-----------------------]

2:47 - 3:21 play 16 times
[-----------------------
-------0-------0-------
---5-------5-------5---
-7---7-------7---------
-----------------------
-----------------------]

3:18 - 3:35 play 3 times
[----------------------------------------------------
----------------------------------------------------
----------------------------------------------------
-3-3-3-7--3---5-5-5-9--5---7-7-7--12--9--10--9--7---
-3-3-3-7--3---5-5-5-9--5---7-7-7--12--9--10--9--7---
-1-1-1-5--1---3-3-3-7--3---5-5-5--10--7--8---7--5---]

3:36 - 3:41 play 1 time
[----------------------------------------------------------
----------------------------------------------------------
----------------------------------------------------------
-14-14-14-12--10--12--10--9--7---7-7-7--12--9--10--9--7---
-14-14-14-12--10--12--10--9--7---7-7-7--12--9--10--9--7---
-12-12-12-10--8---10--8---7--5---5-5-5--10--7--8---7--5---]

3:42 - 3:45 play 1 time
[-------------------------------
-------------------------------
-------------------------------
-3-3-3-7--3---5-5-5-9--5---7---
-3-3-3-7--3---5-5-5-9--5---7---
-1-1-1-5--1---3-3-3-7--3---5---]

some bass plays
4:11 - 4:22 play 2 times
[--------------------------------------------------
--------------------------------------------------
--------------------------------------------------
-7--7-9-10--10--3-3-3-3-3--2-2-2-2-2--3-3-3-3-3---
-7--7-9-10--10--3-3-3-3-3--2-2-2-2-2--3-3-3-3-3---
-5--5-7-8---8---1-1-1-1-1--0-0-0-0-0--1-1-1-1-1---]

4:23 - 4:28 play 1 times
[-------------------------------------------------------
-------------------------------------------------------
-------------------------------------------------------
-3-3-3-3-3-3-3-3--5-5-5-7--9---7-7-7--12--9--10--9--7---
-3-3-3-3-3-3-3-3--5-5-5-7--9---7-7-7--12--9--10--9--7---
-1-1-1-1-1-1-1-1--3-3-3-5--7---5-5-5--10--7--8---7--5---]

4:29 - 4:40 play 2 times
[----------------------------------------------------
----------------------------------------------------
----------------------------------------------------
-3-3-3-7--3---5-5-5-9--5---7-7-7--12--9--10--9--7---
-3-3-3-7--3---5-5-5-9--5---7-7-7--12--9--10--9--7---
-1-1-1-5--1---3-3-3-7--3---5-5-5--10--7--8---7--5---]

4:41 - 4:45 play 1 time
[----------------------------------------------------------
----------------------------------------------------------
----------------------------------------------------------
-14-14-14-12--10--12--10--9--7---7-7-7--12--9--10--9--7---
-14-14-14-12--10--12--10--9--7---7-7-7--12--9--10--9--7---
-12-12-12-10--8---10--8---7--5---5-5-5--10--7--8---7--5---]

4:46 - 4:50 play 1 time
[------------------
------------------
------------------
-3-3-3-7--3---5---
-3-3-3-7--3---5---
-1-1-1-5--1---3---]

________________
Eternity Part II

(instrumental)
Riff a
[E------------------------
B-----13---12--12--------
G--9----------------9/14-
D------------------------
A------------------------
E------------------------]
Riff b
[E----------------------
B--5-------------------
G----7--5--------------
D---------7------------
A------------7--5--7---
E----------------------]
_ _ _ _ _ _ _ _ _ _ _ _ (palm muting)
Riff c
[E--------------------
B-----13-----12------
G--9------9-----9/14-
D--------------------
A--------------------
E--------------------]
Riff d (Background guitar) clean tone
[E------------------------0--
B-----------0---------------
G-----5------------5-------- } repeat
D--------7------------7-----
A--0------------0-----------
E---------------------------]

_________________
Eternity Part III

[e--------------------------------
b--------------------------------
g--------------------------------
d----------0------------------0--
a------4------------------4------
e---7------------------3---------

e----------------------------------------------------------------
b----------------------------------------------------------------
g----------------------------------------------------------------
d-----------0--------0-----0----------------0--------0-----0-----
a-----4-----------4-----------4-------4-----------4-----------4--
e--7-----7-----7--------7----------3-----3-----3--------3--------

e----------------------------------------------------------------
b----------------------------------------------------------------
g----------------------------------------------------------------
d-----------0--------0-----0----------------0--------0-----0-----
a-----4-----------4-----------4-------4-----------4-----------4--
e--0-----0-----0--------0----------2-----2-----2--------2--------]
Другие песни: