AnathemaEmotional Winter Текст, аккорды

0 Голосов
1:47 - 2:05 play 4 times
[---------------------------
---------0h1p0-------------
-------2-------2---2-------
---0h2-----------2-----2---
-0-------------------0-----
---------------------------]
2:06 - 2:14 play 4 times
[---------------------------
---------0h1p0-------------
-------2-------2---2-------
---0h2-----------2---------
-0-------------------------
---------------------------]
2:15 - 2:23 play 4 times
[---------------------------
---------0h1p0-------------
-------2-------2---2-------
---2h3-----------3---------
-0-------------------------
---------------------------]
2:24 - 2:32 play 4 times
[---------------------------
---------0h1p0-------------
-------2-------2---2-------
---0h2-----------2---------
-0-------------------------
---------------------------]
2:33 - 2:51 play 8 times
[-(0)---------------
--0----------------
--2--2-2--2-2--2---
--2--2-2--2-2--2---
--0--0-0--0-0--0---
--0----------------]
2:52 - 3:00 play 4 times
[-----------------
-----------------
-----------------
-7--7-7-8--7-3---
-7--7-7-8--7-3---
-5--5-5-6--5-3---]
3:01 - 3:18 play 4 times (after the line just last time)
[---------------I-----
---------------I-----
---------------I-----
-7--7-7-8--8-3-I-7---
-7--7-7-8--8-3-I-7---
-5--5-5-6--6-3-I-5---]
3:19 - 3:28 play 2 times
[---------------------------
---------0h1p0-------------
-------2-------2---2-------
---0h2-----------2-----2---
-0-------------------0-----
---------------------------]
3:29 - 3:37 play 4 times
[---------------------------
---------0h1p0-------------
-------2-------2---2-------
---0h2-----------2---------
-0-------------------------
---------------------------]
3:38 - 3:46 play 4 times
[---------------------------
---------0h1p0-------------
-------2-------2---2-------
---2h3-----------3---------
-0-------------------------
---------------------------]
3:47 - 2:55 play 4 times
[---------------------------
---------0h1p0-------------
-------2-------2---2-------
---0h2-----------2---------
-0-------------------------
---------------------------]
3:56 - 4:14 play 8 times
[-(0)---------------
--0----------------
--2--2-2--2-2--2---
--2--2-2--2-2--2---
--0--0-0--0-0--0---
--0----------------]
4:15 - 4:23 play 4 times
[-----------------
-----------------
-----------------
-7--7-7-8--7-3---
-7--7-7-8--7-3---
-5--5-5-6--5-3---]
4:24 - 4:32 play 4 times
[-----------------
-----------------
-----------------
-7--7-7-8--8-3---
-7--7-7-8--8-3---
-5--5-5-6--6-3---]
4:33 - 4:41 play 4 times
[-----------------
-----------------
-----------------
-7--7-7-8--7-3---
-7--7-7-8--7-3---
-5--5-5-6--5-3---]
4:42 - 5:13 play 4 times (after the line just last time, hold it)
[---------------I-----
---------------I-----
---------------I-----
-7--7-7-8--8-3-I-7---
-7--7-7-8--8-3-I-7---
-5--5-5-6--6-3-I-5---]
4:52 - 5:09 play 8 times (after the line the end)
[-----------------I--------
-----------------I----0---
-2--2-2-2--2-2-2-I---2----
-2--2-2-2--2-2-2-I--2-----
-0--0-0-0--0-0-0-I-0------
-----------------I--------]
Другие песни: