AnathemaAscension Текст, аккорды

0 Голосов
Standard tuning ([ebgdae]).

Fig.1 (rythm guitar - played a couple of times)
D
------------
------------
------------
----0-------
----2-------
------------

Fig.2 (lead guitar)
----------------------------------------------------------
----------------------------------------------------------
---------------------------------------------------------- last note is
---0-2-3-4-5~---------------0-2-3-4-5-4-3-4-3-2-2-2~------ sometimes finished
---------------------------------------------------------- with feedback
----------------------------------------------------------

Fig.2b (one of many ways to play figure 2)
----------------------------------------------------------
----------------------------------------------------------
----------------------------------------------------------
---0-2-3-4-5~---------------0-2-3-4-5-4-3-4-3-2---2-------
------------------------------------------------4---4-2~--
----------------------------------------------------------

Fig.3 (lead guitar)
--------------------------
--------------------------
--------------------------
------4----2~-------------
---2----2-----------------
--------------------------

__________________
Standard Tuning
Lead Guitar:
------------------------------------------------------
------------------------------------------------------
------------------------------------------------------
------2-4-5------------------2--4--5/7--5--4h5p4--0---
--2-5-------------------------------------------------
------------------------------------------------------

------------------------------------------------------
------------------------------------------------------
------------------------------------------------------
------2-4-5--------------2--4--5/7--5--4h5p4--0-------
--2-5-----------------------------------------------2-
------------------------------------------------------

------------------------------------------------------
------------------------------------------------------
------------------------------------------------------
------2-4-5------------------2--4--5/7--5--4h5p4--0---
--2-5-------------------------------------------------
------------------------------------------------------

------------------------------------------------------
------------------------------------------------------
------------------------------------------------------
------2-4-5--------------2--4--5/7--5--4h5p4--0-------
--2-5-----------------------------------------------2-
------------------------------------------------------
And so on. There are some harmonics on almost every note
that's held for longer than a couple of beats in the song, but
I'm not sure which fret they're played on.

There is also a part where the lead guitar jumps up
to a high pitched wale.
This may also be harmonics, but it can also be played
like so:
---13~~------12~~-------------------------------------
------------------------------------------------------
------------------------------------------------------
------------------------------------------------------
------------------------------------------------------
------------------------------------------------------
Другие песни: