AnathemaAlternative 4 Текст, аккорды

0 Голосов
Bass Riff a
[G-7-7-7-8--8--8--8--8-7-7-7-7-12--12--11--11--
D0-0-0-0-10-10-10-10-0-0-0-0-0--10--10--10----
A---------------------------------------------
E---------------------------------------------]
Guitar Riff b
[E---------------------
B---------------------
G7-7------5-5---------
D7-7------5-5---------
A5-5------3-3---------
E---------------------]
Bass Riff b
[G------------------------------------------
D-----------------------------------5454---
A5-5------3-3----3/153--5-5----3-3--------
E------------------------------------------]
Several times during the last part of the song the guitar hits
[E----------
B----------
G7---------
D7---------
A5---------
E----------]
At the end the bass plays
[G----------------
D0-0-0-0-0-0-0-0-
A----------------
E----------------]
Just before the fade the guitar plays
[E----------
B----------
G----------
D-5-5454---
A3-3-------
E----------]
Другие песни: