AmorphisFar From The Sun Текст

0 Голосов
-----------------------------3--------------------------------------------
-------3----------------------------------------3-------------------------
----------5---2-----------------5---2-------------5---2-----2h3p2---------
-----5-----------3-----(5)5------------3------5----------3--------4--5----
--------------------------------------------------------------------------
--3-------------------3--------------------3------------------------------
G5 G5 G5 D#5 C
-----------------------------3--------------------------------------------
-------3----------------------------------------3-------------------------
----------5---2-----------------5---2-------------5---2-----2h3p2---------
-----5-----------3-----(5)5------------3------5----------3--------4--5----
--------------------------------------------------------------------------
--3-------------------3--------------------3------------------------------
G5 F5 G5 G5 F5 D#5 C5
Nothing is more than too much I'm waiting for the tarnishing touch
G5 F5 G5 G5 F5 D#5 C5
you wish for the last kiss goodbye like the child that cannot lie.
---------------------------------------------------------------------------
-------3---------------------3-------------------3--------------3----------
----------5---2-----------------5---2--------------5---2-----------5---2---
-----5-----------3--------5------------3------5----------3----5----------3-
---------------------------------------------------------------------------
--3-------------------3--------------------3----------------3--------------
G5 D#5 F5 G5 D#5 F5
I walk away now from you and your sun it goes down from you
G5 D#5 F5 G5 D#5 F5
as I walk away now from you far from your sun.
while the other guitar does this
---------------------------------
---3--3--4--3--------------------
---3--3--3--3--3-----------------
-5-------------------------------
---------------------------------
---------------------------------
G5 G5 G5 D#5 C5
-----------------------------3--------------------------------------------
-------3----------------------------------------3-------------------------
----------5---2-----------------5---2-------------5---2-----2h3p2---------
-----5-----------3-----(5)5------------3------5----------3--------4--5----
--------------------------------------------------------------------------
--3-------------------3--------------------3------------------------------
G5 F5 G5 G5 F5
holding the wounds of the bleeding souls you summon all the
D#5 C5 G5 F5 G5 G5 F5 D#5 C5
restless folk to share the feast of anxiety like the spawn that cannot breed.
-----------------------------3-----------------------------------3---------
-------3----------------------------------------3--------------------------
----------5---2-----------------5---2-------------5---2-------------5--2---
-----5-----------3--------5------------3------5----------3-----5----------3
---------------------------------------------------------------------------
--3-------------------3--------------------3-----------------3-------------

G5 D#5 F5 G5 D#5 F5
I walk away now from you and your sun it goes down from you
G5 D#5 F5 G5 D#5 F5
as I walk away now from you far from your sun.
while the other guitar does this
---------------------------------
---3--3--4--3--------------------
---3--3--3--3--3-----------------
-5-------------------------------
---------------------------------
---------------------------------

-----------------------------3--------------------------------------------
-------3----------------------------------------3-------------------------
----------5---2-----------------5---2-------------5---2-----2h3p2---------
-----5-----------3-----(5)5------------3------5----------3--------4--5----
--------------------------------------------------------------------------
--3-------------------3--------------------3------------------------------

----------------------------------------------------------------
-8-6-8-6--------------------------------------------------------
---------7--5---------------------------------------------------
--------------8--8-7-8-7--5-----5-------------------------------
----------------------------8-----------------------------------
----------------------------------------------------------------
play this a few times and keep doing it while the other guitar does
---------------------------------------------8/10--8------------
-8---6----------8--6------8--6---------8--6---------------------
----------------------------------------------------------------
---------8---5-------8--5------8--5-----------------------------
----------------------------------------------------------------
----------------------------------------------------------------
during the chorus and a prelude to the solo is
---10--8-10-----10--8-10----10---13--15--15----------------------
-8------------8----------8-----------------15--13-15---12--10----
-----------------------------------------------------------------
-----------------------------------------------------------------
-----------------------------------------------------------------
-----------------------------------------------------------------
then the solo
-----------------------------------------------------
---------------------------8-6-8-6-8-----------------
-7-5-7-5--------------5-7----------------------------
---------8-7-5--5-7-8--------------------------------
-----------------------------------------------------
-----------------------------------------------------

-6-5---------------8-6-5---------6-5----------------------------
-----8-6-8--6--8---------8--6--8------8-6-8--6--8---8--6--------
----------------------------------------------------------------
----------------------------------------------------------------
----------------------------------------------------------------
----------------------------------------------------------------
from now on play really fast
-6-5-6-5-------6-5-6-5--------8-6-8-6--5-----8-6-8-6--5---------
---------8-6-8---------8-6-8--------------7--------------7------
----------------------------------------------------------------
----------------------------------------------------------------
----------------------------------------------------------------
----------------------------------------------------------------
really really fast
-10-8-10-8------------------------------------------------------
-----------11-10-11-10-11-10-8-----8---8-8----8-----------------
-------------------------------10----10----10-------------------
----------------------------------------------------------------
----------------------------------------------------------------
----------------------------------------------------------------
О.К now you can slow down a bit
----------------------------------------------------------------
----------------------------------------------------------------
----------------------------------------------------------------
--8-7-8-7-5---5-5--8-7-------5----------------------------------
------------8----------8--5-------------------------------------
----------------------------------------------------------------
Другие песни: