Amitabh BhattacharyaKahaani Aankhon Ke Pardon Pe Текст

0 Голосов
The intro bass tab at 0:41: 
e|-------------------------------------------------------------------------|
B|-------------------------------------------------------------------------|
G|-------------------------------------------------------------------------|
D|-------------------------------------------------------------------------|
A|-------------------------------------------------------------------------|
E|-0-7-9-9--0-7-9-9--0-7-9-9--0-7-9-9--0-5-7-7--0-5-7-7--0-5-7-7--0-5-7-7--|

e|------------------------------------------------------------------------------|
B|-4s5s4-2-4--4s5s4-2-4-4-5-7-9----------4s5s4-2-4--4s5s4-2-4-4-5-7-9-----------|
G|------------------------------6----5--------------------------------6----7s6s5|
D|------------------------------------------------------------------------------| x2
A|------------------------------------------------------------------------------|
E|------------------------------------------------------------------------------|

G E
Aankhon ke pardon pe pyara sa jo tha, woh nazaara
G E
Dhuaan sa bankar ud gaya ab na raha-aaa

G#m A Am
Baithe thhe hum toh, khwabon ke chaanv ke tale-eeey.
G#m A Am
Chhod ke unko, jaane kahaan ko chale-eeey.

e|---------------------------------------------------------|
B|-10-9-7-5-0--10-9--12-5----10-9-7-5-0--10-9--12-5--7-5---|
G|---------------------------------------------------------|
D|---------------------------------------------------------|
A|---------------------------------------------------------|
E|---------------------------------------------------------|

E F#m A E
Kahaani khatam hain, yaa shuruat honay ko hain,
E F#m A E
Subaha nayi hai yeh, ya fir raat honay ko hain,
E F#m A E
Kahaani khatam hain, yaa shuruat honay ko hain,
E F#m A E
Subaha nayi hai yeh, ya fir raat honay ko hain,
F#m A E
Aane waala waqt dega pana heyy,
F#m A E
Yaa phir se milenge do raahe-eeey.
F#m A E
Khabar kya, kya pata.
Другие песни: