All About EveMarthas Harbour Текст

0 Голосов
Martha's harbour - All About Eve


Guitar should be tuned down a tone, but what the heck, just squeal
like a ninja with burst piles whilst singing.
This is for one guitarist, and not exactly as you hear on the CD.

Intro

E--------0--------|----------0---------|--------0--------|---------0--------|
B-------------0---|----------------0---|-------------0---|-------------0----|
G------9----9-----|--------9-----9-----|------9----9-----|--------9---9-----|
D---10----10---10-|-----10----10----10-|---10----10---10-|-----10---10---10-|
A-0---------------|-0-8----------------|-0---------------|-0-8--------------|
E-----------------|--------------------|-----------------|------------------|

E------0--------|-------0---------|
B----0---0------|-------------0---|
G--7-------7--0-|-----7-----7---7-|
D-5---------5---|---5-----5-------|
A---------------|-7---------------|
E---------------|-----------------|

E--------0--------|----------0---------|--------0--------|---------0--------|
B-------------0---|----------------0---|-------------0---|-------------0----|
G------9----9-----|--------9-----9-----|------9----9-----|--------9---9-----|
D---10----10---10-|-----10----10----10-|---10----10---10-|-----10---10---10-|
A-0---------------|-0-8----------------|-0---------------|-0-8--------------|
E-----------------|--------------------|-----------------|------------------|

E------0--------|-------0---------|
B----0---0------|-------------0---|
G--7-------7--0-|-----7-----7---7-|
D-5---------5---|---5-----5-------|
A---------------|-7---------------|
E---------------|-----------------|

Verse 1

E--------0--------|----------0---------|--------0--------|---------0--------|
B-------------0---|----------------0---|-------------0---|-------------0----|
G------9----9-----|--------9-----9-----|------9----9-----|--------9---9-----|
D---10----10---10-|-----10----10----10-|---10----10---10-|-----10---10---10-|
A-0---------------|-0-8----------------|-0---------------|-0-8--------------|
E-----------------|--------------------|-----------------|------------------|
I sit by the harbour

E------0--------|-------0---------|
B----0---0------|-------------0---|
G--7-------7--0-|-----7-----7---7-|
D-5---------5---|---5-----5-------|
A---------------|-7---------------|
E---------------|-----------------|
The sea calls to me

E--------0--------|----------0---------|--------0--------|---------0--------|
B-------------0---|----------------0---|-------------0---|-------------0----|
G------9----9-----|--------9-----9-----|------9----9-----|--------9---9-----|
D---10----10---10-|-----10----10----10-|---10----10---10-|-----10---10---10-|
A-0---------------|-0-8----------------|-0---------------|-0-8--------------|
E-----------------|--------------------|-----------------|------------------|
I hide in the water

E------0--------|-------0---------|
B----0---0------|-------------0---|
G--7-------7--0-|-----7-----7---7-|
D-5---------5---|---5-----5-------|
A---------------|-7---------------|
E---------------|-----------------|
But I need to breathe

Chorus

E-------0--------|-------0-------|--------0--------|-----------------|
B------------0---|-----0---0-----|------0---0------|------3-----4----|
G-----6----6---6-|---6------6--6-|----5-------5--5-|----2-----2------|
D---7-----7------|-6---------6---|--5----------5---|--0-----4------7-|
A-0--------------|---------------|-----------------|-----------------|
E----------------|---------------|-----------------|-----------------|
You are an ocean wave my love Crashing at the

E-------0--------|-------0-------|--------0--------|-----------------|
B------------0---|-----0---0-----|------0---0------|------3-----4----|
G-----6----6---6-|---6------6--6-|----5-------5--5-|----2-----2------|
D---7-----7------|-6---------6---|--5----------5---|--0-----4------0-|
A-0--------------|---------------|-----------------|-----------------|
E----------------|---------------|-----------------|-----------------|
Bow I am a galley slave my love If only I could

E-----------------|-------0---------|------0--------|---------------|
B-------0---------|---------0-------|-----------0---|---------------|
G-----5---5-------|-----7-----7---7-|-----2---2-----|-----2-----2---|
D---3-------3---3-|---5---------5---|---2---2-----2-|---2-----2---2-|
A-5-----------5---|-7-----------7---|-0-------------|-0-----2-------|
E-----------------|-----------------|---------------|---------------|
Find out the way to sail you Maybe I'll

E-----------------|-------0---------|
B-------0---------|-----3---3-------|
G-----5---5-------|---1-------1---1-|
D---3-------3---3-|-2-----------2---|
A-5-----------5---|-----------------|
E-----------------|-----------------|
Just stow away

Middle 8

E--------0--------|----------0---------|--------0--------|---------0--------|
B-------------0---|----------------0---|-------------0---|-------------0----|
G------9----9-----|--------9-----9-----|------9----9-----|--------9---9-----|
D---10----10---10-|-----10----10----10-|---10----10---10-|-----10---10---10-|
A-0---------------|-0-8----------------|-0---------------|-0-8--------------|
E-----------------|--------------------|-----------------|------------------|

E------0--------|-------0---------|
B----0---0------|-------------0---|
G--7-------7--0-|-----7-----7---7-|
D-5---------5---|---5-----5-------|
A---------------|-7---------------|
E---------------|-----------------|

Verse 2

E--------0--------|----------0---------|--------0--------|---------0--------|
B-------------0---|----------------0---|-------------0---|-------------0----|
G------9----9-----|--------9-----9-----|------9----9-----|--------9---9-----|
D---10----10---10-|-----10----10----10-|---10----10---10-|-----10---10---10-|
A-0---------------|-0-8----------------|-0---------------|-0-8--------------|
E-----------------|--------------------|-----------------|------------------|
I've been run aground

E------0--------|-------0---------|
B----0---0------|-------------0---|
G--7-------7--0-|-----7-----7---7-|
D-5---------5---|---5-----5-------|
A---------------|-7---------------|
E---------------|-----------------|
So sad for a sailor

E--------0--------|----------0---------|--------0--------|---------0--------|
B-------------0---|----------------0---|-------------0---|-------------0----|
G------9----9-----|--------9-----9-----|------9----9-----|--------9---9-----|
D---10----10---10-|-----10----10----10-|---10----10---10-|-----10---10---10-|
A-0---------------|-0-8----------------|-0---------------|-0-8--------------|
E-----------------|--------------------|-----------------|------------------|
I felt safe and sound but

E------0--------|-------0---------|
B----0---0------|-------------0---|
G--7-------7--0-|-----7-----7---7-|
D-5---------5---|---5-----5-------|
A---------------|-7---------------|
E---------------|-----------------|
needed the danger

Chorus

E-------0--------|-------0-------|--------0--------|-----------------|
B------------0---|-----0---0-----|------0---0------|------3-----4----|
G-----6----6---6-|---6------6--6-|----5-------5--5-|----2-----2------|
D---7-----7------|-6---------6---|--5----------5---|--0-----4------7-|
A-0--------------|---------------|-----------------|-----------------|
E----------------|---------------|-----------------|-----------------|
You are an ocean wave my love crashing at the

E-------0--------|-------0-------|--------0--------|-----------------|
B------------0---|-----0---0-----|------0---0------|------3-----4----|
G-----6----6---6-|---6------6--6-|----5-------5--5-|----2-----2------|
D---7-----7------|-6---------6---|--5----------5---|--0-----4------0-|
A-0--------------|---------------|-----------------|-----------------|
E----------------|---------------|-----------------|-----------------|
bow I am a galley slave my love If only I could

E-----------------|-------0---------|------0--------|---------------|
B-------0---------|---------0-------|-----------0---|---------------|
G-----5---5-------|-----7-----7---7-|-----2---2-----|-----2-----2---|
D---3-------3---3-|---5---------5---|---2---2-----2-|---2-----2---2-|
A-5-----------5---|-7-----------7---|-0-------------|-0-----2-------|
E-----------------|-----------------|---------------|---------------|
find out the way to sail you Maybe I'll

E-----------------|-------0---------|
B-------0---------|-----3---3-------|
G-----5---5-------|---1-------1---1-|
D---3-------3---3-|-2-----------2---|
A-5-----------5---|-----------------|
E-----------------|-----------------|
Just stow away

E-------0--------|-------0-------|--------0--------|-----------------|
B------------0---|-----0---0-----|------0---0------|------3-----4----|
G-----6----6---6-|---6------6--6-|----5-------5--5-|----2-----2------|
D---7-----7------|-6---------6---|--5----------5---|--0-----4------7-|
A-0--------------|---------------|-----------------|-----------------|
E----------------|---------------|-----------------|-----------------|
You are an ocean wave my love crashing at the

E-------0--------|-------0-------|--------0--------|-----------------|
B------------0---|-----0---0-----|------0---0------|------3-----4----|
G-----6----6---6-|---6------6--6-|----5-------5--5-|----2-----2------|
D---7-----7------|-6---------6---|--5----------5---|--0-----4------0-|
A-0--------------|---------------|-----------------|-----------------|
E----------------|---------------|-----------------|-----------------|
bow I am a galley slave my love If only I could

E-----------------|-------0---------|------0--------|---------------|
B-------0---------|---------0-------|-----------0---|---------------|
G-----5---5-------|-----7-----7---7-|-----2---2-----|-----2-----2---|
D---3-------3---3-|---5---------5---|---2---2-----2-|---2-----2---2-|
A-5-----------5---|-7-----------7---|-0-------------|-0-----2-------|
E-----------------|-----------------|---------------|---------------|
Find out the way to sail you Maybe I'll

E-----------------|-------0---------|
B-------0---------|-----3---3-------|
G-----5---5-------|---1-------1---1-|
D---3-------3---3-|-2-----------2---|
A-5-----------5---|-----------------|
E-----------------|-----------------|
Just stow away

Outro

E--------0--------|----------0---------|--------0--------|---------0--------|
B-------------0---|----------------0---|-------------0---|-------------0----|
G------9----9-----|--------9-----9-----|------9----9-----|--------9---9-----|
D---10----10---10-|-----10----10----10-|---10----10---10-|-----10---10---10-|
A-0---------------|-0-8----------------|-0---------------|-0-8--------------|
E-----------------|--------------------|-----------------|------------------|

E--------0--------|----------0---------|--------0--------|---------0--------|
B-------------0---|----------------0---|-------------0---|-------------0----|
G------9----9-----|--------9-----9-----|------9----9-----|--------9---9-----|
D---10----10---10-|-----10----10----10-|---10----10---10-|-----10---10---10-|
A-0---------------|-0-8----------------|-0---------------|-0-8--------------|
E-----------------|--------------------|-----------------|------------------|
Stowaway
Strum
E-----0-------0----|
B-------0-----0----|
G-------------9----|
D------------10----|
A-8-----------0----|
E------------------|
Stowaway

mikelongworth@lineone.net
Другие песни: