Alkaline TrioRadio Текст

0 Голосов
Band: ALKALINE TRIO
Song: RADIO
Album: Maybe I'll Catch Fire
Tabbed by Logan Rott--Metalwolf80@AOL.com

A really great song by an awesome band. Not to difficult, just keep counting.

Verse/main riff
G------------------------------------------------------------
D------------------------------------------------------------
A---5-5-5-5-5-5-3-3-3-3-2-2-2-2-2-2-0-0-0-0-0-0-0-0-0-0------
E------------------------------------------------------------

verse variation
G------------------------------------------------------------
D-----------------------------------------------3-3-2-2------
A---5-5-5-5-5-5-3-3-3-3-2-2-2-2-2-2-0-0-0-0-0-0--------------
E------------------------------------------------------------

end of verse
G-----------------------------------------------------------------
D-----------------------------------------------------------------
A---5-5-5-5-5-5-3-3-3-3-2-2-2-2-2-2-0-0-0-0-0-0-0-----------------
E-------------------------------------------------3-3-3-3-3-3-3--5

Chorus (play twice)
G------------------------------------------------------------------------
D------------------------------------------------------------------------
A--5-5-5-5-5-5-5-5-----------------5-5-5-5-5-5-5-5-----------------------
E------------------5-5-5-5-5-5-5-5------------------7-7-7-5-5-5----------

then play:
G------------------------------------------------------
D------------------------------------------------------
A------------------------------------------------------
E--3-3-3-3-3-3-3-3-3-3-3-3-3---5-------------------------


Order of Song:

Verse X6
Verse End X1
Verse X6
Verse End X1
Chorus X1
Verse X6
Verse End X1
Chorus X1
Verse End X5
Другие песни: