АлисаВсе решено Текст

0 Голосов
Intro:
I-----------------------------------------------I
I-----------------------------------------------I
I*---------------------------------------------*I
I*---------------------------------------------*I
I-------3----3---3----3------5---3-7-5-3--5-3---I
I---5-5----5---5----5----3-3--------------------I

------3---------1-0--
--------3------------
----2---------0------
---------------------
--0---------0--------
---------------------

Am G
Долгие года
F Am
Я летел туда, где ветер не заметен.
Am G
Плыл по проводам,
F Am
Идолом плясал под хороводы сплетен.
Am G
Мерил вкривь да вкось,
F Am
Золотой иглой писал на теле руны.
Am G
Жил под стук колес,
F Am
Города менял, как порванные струны.

Припев:
Dm Am
Я ухожу туда, где небо
G Am
Веткой бьет в окно.
Dm Am
Ты проводи вином и хлебом.
G Am
Все решено.

Am G
Где моя звезда
F Am
Остывает после разговора с домом
Am G
Горе - не беда,
F Am
Время коротать по землям незнакомым.

Припев:
Dm Am
Я ухожу туда, где небо
G Am
Веткой бьет в окно.
Dm Am
Ты проводи вином и хлебом.
G Am
Все решено.

Am G
И только свет в твоем окне
F Am
Снова утолит меня волной печали
Am G
Дымом по воде
F Am
Отлетит молва, как в осень обвенчали.

Dm Am
Я ухожу туда, где небо
G Am
Веткой бьет в окно.
Dm Am G
Ты проводи вином и хлебом.
Dm Am
Пойдем со мной туда, где небо
G Am
Манит за собой.
Dm Am
На посошок вина да хлеба.
G Am
Я ухожу. Пойдем со мной.

Solo:
-----------------------------------------------------------
-----------------------------------------------------------
-----------------------------------------------------------
--10p7-9p7------7p5-----5----------------------------------
-----------10p7-----7p5---7---5------------5>(7)>5~--------
-----------------------------------------------------------

---------------------------------------------------------------------
---------------------------------------------------------------------
------------12>(14)-(14)>12p9----------------------------------------
--12p10-----------------------12p10~~--10h12p10h12p10h12p10h12>(14~)-
--------12-----------------------------------------------------------
---------------------------------------------------------------------

--12-----12-12-----12-12-----12-12-----12-12-----12------------------
--15>(17)---15>(17)---15>(17)---15>(17)---15>(17)---15>(17)-15~~~----
---------------------------------------------------------------------
---------------------------------------------------------------------
---------------------------------------------------------------------
---------------------------------------------------------------------

-----------------------------
--13---13-13---13---13-------
--12---12-12---12---12-------
-------------------------7-7-
-------------------------7-7-
-------------------------5-5-
Другие песни: