Alice In ChainsRain When I Die Текст

0 Голосов
Tuning: Down a half step/ "Dropped D" ([Db Ab Db Gb Bb Eb])

Verse:
D5
-------------------------------------------------
-------------------------------------------------
-------------------------------------------------
-----------------3-------------------------------
-3h5-3---0-------------------3-h-5---------------
-------------3-----------0-----------0---3---0---
1 e + a 2 e + a 3 e + a 4 e + a 5 e + a 6 e + a
C5
-------------------------------------------------
-------------------------------------------------
-------------------------------------------------
-----------------3-------------------------------
-3h5-3---0-------------------3-h-5-------3-------
-------------3-----------0-----------0-------0---
1 e + a 2 e + a 3 e + a 4 e + a 5 e + a 6 e + a

Chorus:
Dm Bbsus4 F5
----------------------------------1---------------
------------------------------1-------------------
------------------3-------------------------------
------------------3---------------------------3--s
---------0-h-5----1---------------------------3--s
-0-h-3----------------------------------------3--s
1 e + a 2 e + a 1 e + a 2 e + a 3 e + a 4 e + a
G5
---------------------------------
---------------------------------
---------------------------------
-----5---5-------5---------------
-----5---5-------5---------------
-----5---5-------5---------------
1 e + a 2 e + a 3 e + a 4 e + a
Bbsus4 F5 G5 Dm
-----------------1------------------------------------------------
-------------1----------------------------------------------------
-3----------------------------------------------------------------
-3---------------------------3--s-----5---5-----------------------
-1---------------------------3--s-----5---5---------------0-h-5---
-----------------------------3--s-----5---5-------0-h-3-----------
1 e + a 2 e + a 3 e + a 4 e + a 1 e + a 2 e + a 3 e + a 4 e + a
Bbsus4 F5 G5
-----------------1------------------------------------------------
-------------1----------------------------------------------------
-3----------------------------------------------------------------
-3---------------------------3--s-----5---5-------5---------------
-1---------------------------3--s-----5---5-------5---------------
-----------------------------3--s-----5---5-------5---------------
1 e + a 2 e + a 3 e + a 4 e + a 1 e + a 2 e + a 3 e + a 4 e + a
Bbsus4 C5
-----------------1------------------------------------------------
-------------1----------------------------------------------------
-3---------------------------3--s-----5---5-----------------------
-3---------------------------3--s-----5---5-----------------------
-1---------------------------1--s-----3---3-----------------------
------------------------------------------------------------------
1 e + a 2 e + a 3 e + a 4 e + a 1 e + a 2 e + a 3 e + a 4 e + a
Другие песни: