Alice In ChainsDam That River Текст

0 Голосов
Tune down half step.

Riff 1 (palm mute if necessary):
--------------------------------------------------------------------------
--------------------------------------------------------------------------
--------------------------------------------------------------------------
--------------------------------------------------------------------------
---3--4--5--0-----5--6--7--6--5--3--0---3--4--5--0-----5--6--7--6--5--3---
---3--4--5--0-----5--6--7--6--5--3--0---3--4--5--0-----5--6--7--6--5--3---

Riff 2:
---------------------------------------
---------------------------------------
--------------5~~~~---2~~~-------------
---3-/-5--3--------3------3--5---------
-----------------------------------5---
---------------------------------------

Riff 3: . . .
--------------------------------------------------------------------------
--------------------------------------------------------------------------
---5-/-6--5---------------------full-------------5-/-6--5-----------------
---3-/-4--3-----------3~~~~----5^--->(5)p3-------3-/-4--3-----------------
-------------------3h5--------5-------------5~~~~-------------5--5--3--x--
--------------------------------------------------------------------------

Fill 1:
----------------
----------------
----------------
----------------
---7--6--5--3---
---7--6--5--3---

Riff 4: (solo riff)
. . . . . . . . . . . . . .
------------------------------------------------------------------------------
--------------------------------------------------3----3----3--3--------------
--------------------------------------------------2----2----2--2--------------
----------------------------3---------------------0----0----0--0--------------
---3--3--3--3--3--3--3--3---1---6--3--6--3--0--0------------------7--6--5--3--
---3--3--3--3--3--3--3--3-------6--3--6--3--0--0------------------7--6--5--3--

Guitar solo:
full~~ full~~ full~~ full~~ full
------------------------------------------------------------------------------
------------5~~~~~~------------------------5------6-------8-------10---13^----
------------5~~~~~~--5---5-7-5-----5--7-7^-----8^-----10^-----12^-------------
---5--6--7--------------------------------------------------------------------
------------------------------------------------------------------------------
------------------------------------------------------------------------------

half half full
full~~ full~~ full full half hold
-----^------^-----------------------------------------------------------------
----13-----13-------12^-----12^--->(12)-----10~~-5-10^------------------------
--------------------12^-----12^--->(12)-----10~~-5-10^------------------------
-----------------------------------------12--------------12-10----------------
---------------------------------------------------------------11-10--8-10^---
------------------------------------------------------------------------------
________________(10)

------------------------------------------------------------------------------
------------------------------------------------------------------------------
--------------------------------------------------------------------10--------
-------------------------------------------------------12~~~~~~-----12--------
-----------12~~~~--10-10/1210p8--8/10-10/1210---------------------------------
------------------------------------------------10~~~~-----------10-----------

full full full~~~~~~ nh
------------------------------------------------------------------------------
----------------------------------->------------------------------------------
----5-/-7--7--7--7--5-----7-/-9-7^-(7)^---7^---------7~~~~-5-7-5--------------
------------------------------------------------------------------6-7-5-------
----3-/-5--5--5--5--3p0---5-/-7-----------------------------------------------
------------------------------------------------------------------------------
Другие песни: