AerosmithDream On Текст

0 Голосов
Fill 1: (1:31)
E|---------4---|
B|-----------6-|
G|-----3-5-----|
D|-3-6---------|
A|-------------|
E|-------------|

Fill 2: (2:55)
E|---------------1---1-------1-----8---4-----------1---1---1s8s1x-|
B|-2p1-1-h2p1v-4---1---4p1h4---4s6---6---6-4h6-1-4---4---1--------|
G|----------------------------------------------------------------|
D|----------------------------------------------------------------|
A|----------------------------------------------------------------|
E|----------------------------------------------------------------|

E|-----------------------------------------------------------------|
B|-2-1-2-1-2-1-2-1-2-1-2-1-2-1-2-1-2-1-2-1-2-1-2-1-2-1-2-1-2-1-2-1-|
G|-----------------------------------------------------------------|
D|-----------------------------------------------------------------|
A|-----------------------------------------------------------------|
E|-----------------------------------------------------------------|

Fill 3: (3:07)
E|-11h13--11h13--11h13---11h13--13-11----------------------------------|
B|------------------------------------13-11----------------------------|
G|------------------------------------------13-10----------------------|
D|------------------------------------------------13-10----------------|
A|------------------------------------------------------13-11----------|
E|------------------------------------------------------------13-11h13-|

Fill 4: (3:19)
E|-------------|---------------1-|---1---------1---1h4-4-4-4-4-|
B|-------------|-----------------|-4---4-1-4-4---4-------------|
G|-------------|---1-------1h3-3-|-----------------------------|
D|-3-1---1-1-3-|-1---3-1-3-------|-----------------------------|
A|-----3-------|-----------------|-----------------------------|
E|-------------|-----------------|-----------------------------|

E|---6-6-6-6---8-8-8-8s1-|
B|-6---------6-----------|
G|-----------------------|
D|-----------------------|
A|-----------------------|
E|-----------------------|

Intro:
E|-----------------------------------------------------------|
B|-2-1-2-1-2-1-2-1-2-1-2-1-2-1-2-1-2-1-2-1-2-1-2-1-2-1-2-1-2-|
G|-----------------------------------------------------------|
D|-----------------------------------------------------------|
A|-----------------------------------------------------------|
E|-----------------------------------------------------------|

E|-4---4---3---3---4---4---3---3---4---4---6---6---8---8---8~-|
B|-6---6---5---5---6---6---5---5---6---6---6---6---6---6---6~-|
G|---5---5---4---4---5---5---4---4---5---5---5---5---5---5----|
D|------------------------------------------------------------|
A|------------------------------------------------------------|
E|------------------------------------------------------------|

E|-----------------------------------------------------------------------------|
B|-2-1-2-1-2-1-2-1-2-1-2-1-2-1-2-1-2-1-2-1-2-1-2-1-2-1-2-1-2-1-2-1-2-1-2-1-2-1-|
G|-----------------------------------------------------------------------------|
D|-----------------------------------------------------------------------------|
A|-----------------------------------------------------------------------------|
E|-----------------------------------------------------------------------------|

E|-----4---3---3---4---4---3---3---4---4---6---6---8---8---6-4-6-4---4---3-1---|
B|-6---6---4---4---6---6---4---4---6---6---6---6---6---6---6-6-6-6---6---4-2---|
G|-5-5---5---3---3---5---5---3---3---5---5---5---5---5---5---------5---5-----1-|
D|-----------------------------------------------------------------------------|
A|-----------------------------------------------------------------------------|
E|-----------------------------------------------------------------------------|

G|----------------------------------------------------------------------------|
D|----------------------------------------------------------------------------|
A|----------------------------------------------------------------------------|
E|-8-----8-6-----6-4-----4-3-----3-1-----1-1-----1-1---------------4------3-1-|

E|-----------------------------------------------------6------------------6s8~-|
B|-------------------------------------------6-6---6-9---6-9p6-6---------------|
G|-6-5-6-5-6-5-6-5-6p5-------5h6-6-6h8-8-6-8-----8---------------8-8p6-6p5-----|
D|---------------------8p6h8---------------------------------------------------|
A|-----------------------------------------------------------------------------|
E|-----------------------------------------------------------------------------|

E|-----------------1~-|
B|-2~------4~---------|
G|--------------------|
D|--------------------|
A|--------------------|
E|--------------------|

G|-------------------|
D|-------------------|
A|-------------------|
E|-1-----1-3-----3-4-|

Verse 1:
E|---------------------------------|
B|-2-1-2-1-2-1-2-1-2-1-2-1-2-1-2-1-|
G|---------------------------------|
D|---------------------------------|
A|---------------------------------|
E|---------------------------------|

E|-4---4---3---3---4---4---3---3---|
B|-6---6---5---5---6---6---5---5---|
G|---5---5---4---4---5---5---4---4-|
D|---------------------------------|
A|---------------------------------|
E|---------------------------------|

G|---|
D|---|
A|---|
E|-4-|
Repeat the above for all of Verse 1 and verse 2.

Bridge:
G|---------------------------------|
D|---------------------------------|
A|---------------------------------|
E|-4-----4-3-----3-4-----4-3-----4-|
Use the lead and Rhythm for verse 1 and the same chords for the next line.

Chorus Intro:
E|-----------------------------------------|
B|-2-1-2-1-2-1-2-1-2-1-2-1-2-1-2-1-2-1-2-1-|
G|-----------------------------------------|
D|-----------------------------------------|
A|-----------------------------------------|
E|-----------------------------------------|

E|---------3---3---4---4---5---5---6---666-|
B|---------2---2---2---2---2---2---2---222-|
G|---------3---3---3---3---3---3---3---333-|
D|-----------------------------------------|
A|-----------------------------------------|
E|-----------------------------------------|

G|-----------------------------------------|
D|-----------------------------------------|
A|-----------------------------------------|
E|-1---1---1---1---1---1---1---1-------111-|

Chorus:
Fm Eb Db Eb
E|-----------------|---------------|
B|--10-10p8-8------|-8p6-6-----6h8-|
G|-----------------|---------------|
D|-----------------|---------------|
A|-----------------|---------------|
E|-----------------|---------------|
|
G|-----------------|-------------|
D|-----------------|-------------|
A|--8-8p6-----------|6p4-------6-|
E|-----------------|-------------|

Chorus Outro:
E|-----------------------------------------------------------|
B|-2-1-2-1-2-1-2-1-2-1-2-1-2-1-2-1-2-1-2-1-2-1-2-1-2-1-2-1-2-|
G|-----------------------------------------------------------|
D|-----------------------------------------------------------|
A|-----------------------------------------------------------|
E|-----------------------------------------------------------|

E|-4---4---3---3---4---4---3---3---4---4---6---6---8---8---8~-|
B|-6---6---5---5---6---6---5---5---6---6---6---6---6---6---6~-|
G|---5---5---4---4---5---5---4---4---5---5---5---5---5---5----|
D|------------------------------------------------------------|
A|------------------------------------------------------------|
E|------------------------------------------------------------|

Play Verse 2 just like verse 1

Chorus:
Fm Eb Db Eb Fm Eb Db Eb
E|-----------------|---------------------|-8-----8---------|-8-----------8-----|
B|--10-10p8-8------|-8p6-6-----6h8-------|--------8x5------|--9x5---------11x5-|
G|-----------------|---------------------|--10x5-----------|-------------------|
D|-----------------|---------------------|-----------------|-------------------|
A|-----------------|---------------------|-----------------|-------------------|
E|-----------------|---------------------|-----------------|-------------------|
|
G|-----------------|-----------------------|-----------------|---------------|
D|-----------------|-----------------------|-----------------|---------------|
A|-----------------|-----------------------|-----------------|---------------|
E|-4---4p3---------|-3p1-------3-----------|-4---4p3---------|-3p1---------3-|

Chorus Outro:
E|-3---3---3---3---3---3---3-|
B|---------------------------|
G|---------------------------|
D|---------------------------|
A|---------------------------|
E|---------------------------|

E|-----------------------------|
B|-2-1-2-1-2-1-2-1-2-1-2-1-2-1-|
G|-----------------------------|
D|-----------------------------|
A|-----------------------------|
E|-----------------------------|

G|-----------------------------|
D|-----------------------------|
A|-----------------------------|
E|-4-3-4-3-4-3-4-3-4-3-4-3-4-3-|
away-ay...

Solo:
h
E|---4--4---6-646---8---8--8s13-13-|-8---8-----8---4-------8----------|
B|----6--6-------6---6---6---------|---6-6-6-6---6---6---6-6-6-8-8s9~-|
G|--5--5--5--5----5---5---5--------|-------------------8--------------|
D|---------------------------------|----------------------------------|
A|---------------------------------|----------------------------------|
E|---------------------------------|----------------------------------|

E|--4---4---6---6---8---8---8------|-4---4---4---4---4---4---4---4---|
B|--6---6---6---6---6---6---6------|-6---6---6---6---6---6---6---6---|
G|----5---5---5---5---5---5--------|---5---5---5---5---5---5---5---5-|
D|---------------------------------|---------------------------------|
A|---------------------------------|---------------------------------|
E|---------------------------------|---------------------------------|
|
G|---------------------------------|---------------------------------|
D|---------------------------------|---------------------------------|
A|---------------------------------|---------------------------------|
E|--1-------1-------1-------1---4--|-4---------3---------1-------3h4-|

E|---4--4--4----6--6----8----8---8s13-13-|-8---8-----8---4-------|
B|----6---6----6--6--6----6----6---------|---6-6-6-6---6---6---6-|
G|-5----------5-------------5------------|-------------------8---|
D|---------------------------------------|-----------------------|
A|---------------------------------------|-----------------------|
E|---------------------------------------|-----------------------|
|play the same thing again
|
G|---------------------------------------|-----------------------|
D|---------------------------------------|-----------------------|
A|---------------------------------------|-----------------------|
E|-1---1---1--1----1----1----1--------3--|-4---------3---------1-|

[Chorus]

Bridge, Verse, whatever:
Bb C Db Eb Fm
G|-----------------------|
D|-----------------------|
A|-----------------------|
E|-1----3----4----3----1-|
Play the rest like this.

[Chorus]x2
[Chorus outro]

Outro:
E|-3---3---3---3---3---3---3-|
B|---------------------------|
G|---------------------------|
D|---------------------------|
A|---------------------------|
E|---------------------------|

E|-----------------------------|
B|-2p1h2p1h2p1h2p1h2p1h2p1h2p1-|
G|-----------------------------|
D|-----------------------------|
A|-----------------------------|
E|-----------------------------|

G|---------------------------|
D|---------------------------|
A|---------------------------|
E|-1---1---1---1---1---1---1-|
Другие песни: