AdemaImmortal Текст

0 Голосов
tabbed by IbanezUser


Intro

Db)----------------------------------------
Ab)----------------------------------------
Db)----------------------------------------
Gb)----------------------------------------
Bb)----------------------------------------
Eb)-19-(x7)-20^--19(x7)-17-----------------


Db)-2-2-9-9-9-10-10-10-12-12-13-14---------
Ab)-2-2-9-9-9-10-10-10-12-12-13-14---------
Db)-2-2-9-9-9-10-10-10-12-12-13-14---------
Gb)----------------------------------------
Bb)----------------------------------------
Eb)----------------------------------------

Chorus

Db)2-2-2-2-2-2-2-2-5-5-5-5-0-0-0-0-0-0-0-0-10-10-10-10-10-10-
Ab)2-2-2-2-2-2-2-2-5-5-5-5-5-5-5-5-5-5-5-5-10-10-10-10-10-10-
Db)2-2-2-2-2-2-2-2-5-5-5-5-7-7-7-7-7-7-7-7-10-10-10-10-10-10-
Gb)----------------------------------------------------------
Bb)----------------------------------------------------------
Eb)----------------------------------------------------------

After chorus and end

Db)2-2-2--5-2-1-1-2-2-2--5-2-1-1-
Ab)2-2-2--5-2-1-1-2-2-2--5-2-1-1-
Db)2-2-2--5-2-1-1-2-2-2--5-2-1-1-
Gb)------------------------------
Bb)------------------------------
Eb)------------------------------
Другие песни: