AdeleDaydreamer Текст, аккорды

0 Голосов
Verse:
e-------------------------------------4-------4-------4-------4--------|
B---5-------5-------5-------5-----------5-------5-------5-------5------|
G-----6-------6-------6-------6----------------------------------------|
D-----------------------------------0-----0-0-----0-0-----0-0----------|
A-0-----0-0-----0-0------0-0-------------------------------------------|
E----------------------------------------------------------------------|

Pre Chorus:
e------------------ --------|
A---5-----------5-- --5-----|
D-----6-------6---- --6-----|
G-----------0------ (x4) --0-----| (x1)
B-0-----0-0-------- --0-----|
E------------------ --------|

Chorus
e--2-------- --4------------|
B----3------ ----5----------|
G------4---- (x5) ------6--------| (x5)
D----------- ---------------|
A----------- ---------------|
E----------- ---------------|
Другие песни: