Adams BryanIf Ya Wanna Be Bad Ya Gotta Be Good Текст, аккорды

0 Голосов
INTRO:

----0-h-10--12--10--12--10--12--12--12-10-|
----------------------------12--12--------|
------------------------------------------|
------------------------------------------|
------------------------------------------|
------------------------------------------|

----0-h-10--12--10--12--10--12--12--12-10-|
----------------------------12--12--------|
------------------------------------------|
------------------------------------------|
------------------------------------------|
------------------------------------------|

-----------------------------------------|
-----------------------------------------|
----------------------2------------------| 4 Times
----2--0--2--0--2--0--2------------------|
----2--0--2--0--2--0---------------------|
-----------------------------------------|

VERSE:

-----------------------------------------|
-----------------------------------------|
----------------------2------------------|
----2--0--2--0--2--0--2------------------|
----2--0--2--0--2--0---------------------|
-----------------------------------------|

BREAK & CHORUS : NO GUITAR !!!

LYRICS

SHE GOTTA NASTY REPUTATION
AND A TALENT FOR SIN
SHE'S A KIND OF TROUBLE
I'D LIKE TO BE IN

BREAK 1:
I WANNA BE HER LOVER
I WANNA BE HER SLAVE

SHE'S A KIND OF WOMAN
MAKES ME WANNA MISBEHAVE
SHE SAID "I GIVE YOU WHAT YOU WANT BOY
BUT MAKE IT UNDERSTOOD"

CHORUS:
IF YA WANNA BE BAD - YEAH,YA GOTTA BE GOOD

SHE SAYS "THERE'LL BE NO LYIN'
NO FOOLIN' AROUND
NO SEVEN DAY WEEKENDS
NO NIGHTS IN THE TOWN"

SHE SAID: "THAT'S THE WAY I WANT IT
THAT'S THE WAY IT'S GOTTA BE
IF YOU'RE LOOKING FOR TROUBLE
BETTER GET IT FROM ME
SO GET ON YOUR KNEES BOY AND DO WHAT YOU SHOULD"

CHORUS:
IF YA WANNA BE BAD - YEAH,YA GOTTA BE GOOD

ACOUSTIC GUITAR-SOLO PLAYED OVER VERSE PART
Другие песни: