AC/DCCOD (btab) Текст, аккорды

0 Голосов
Intro:
G:----------| |-------------|
D:----------| x3 |-------------|
A:---1--3--1| |1--1-------3~|
E:3---------| |------3--1---|

(0.51)
G:---------------------------|
D:---------------------------|
A:------3(16)-------1-2-3(16)|
E:3(16)-------3(14)----------|

Chorus:
G:-------------------|
D:-------------------| x3
A:--1-3---1---------3|
E:3-----3---1-1-1-1--|

G:---------------3-2----------------|
D:-------------------3-2-2-3-2-3----|
A:1-1-1-1-----3------------------3--|
E:--------3-1----------------------3|

G:--------------------|
D:------3-------3-----| x4
A:--------3-0-1---3(6)|
E:3(16)---------------|

(2.13)
G:---------| |-----------|
D:---------| x4 |-----------|
A:--1-3---1| |----------3|
E:3-----3--| |1-1-1-1-1--|

G:----------------|
D:-----3-3-3-3-2--|
A:---------------3|
E:3(8)------------|

Оutrо:
G:--------------------------|
D:---------3--3--3----------|
A:------------------3-------|
E:3--3--3-----------------3~|
Другие песни: