AcceptAmamos La Vida Текст

0 Голосов
The basic chords scheme is following:
Bm D A Bm
Bm D Asus4 A
Bm E A Bm
G A Bm

At the end of the last line he plays this:
[e:------------------
B:------------------
G:-7----------------
D:---11h12-11-9-----
A:--------------12--
E:------------------]

The last line is also the pattern played at the chorus.
This is the first solo (if you can call it solo).
w/clean
[e:-----------------------7-7-9-10-7----------------10-7-
B:------7-8P7-------7-10------------8P7-------7-10------
G:--7-9-------9P7-7---------------------9-7-9-----------
D:------------------------------------------------------
A:------------------------------------------------------
E:------------------------------------------------------]

w/Dist.
[e:---------------------------------------------------------------------14--
B:-------------14-14h15P14----------14------------14-14h15P14----15-17-----
G:----------16-------------16-14-------16------16-------------16-----------
D:-------16----------------------16---------16-----------------------------
A:-------------------------------------------------------------------------
E:-------------------------------------------------------------------------

e:----------------------------------------------------
B:--------14-14h15P14----------14----15-14------------
G:-----16-------------16-14-------16-------16-14h16-16
D:--16----------------------16------------------------
A:----------------------------------------------------
E:----------------------------------------------------]

The lyrics and the chorus are always the Intro pattern.
at "Is there someone to...." he plays something like this:
D A D
D A Bm
D A D
A Bm
Другие песни: