5FDPQuestion Everything Текст

0 Голосов
Intro:
Bm G D F#m }
3)---11--11-11-----12--12--12-----11---11--11-----9---9--9-} x2
4)-9---9---9-----9---9----9-----7----7----7-----7---7---7--}

B5 / C5 / B5 B5 / C5 / B5 B5 / C5 / B5 C5 }
4)-4/5/4--4--4-4-4-4-4----4/5/4--4--4-4-4-4-4----4/5/4--4--4-4-4-4-4----5--5--5--5--5-5-} x2
5)-2/3/2--2--2-2-2-2-2----2/3/2--2--2-2-2-2-2----2/3/2--2--2-2-2-2-2----3--3--3--3--3-3-}
V v ^ ^ v v v^ V v ^ ^ v v v^ V v ^ ^ v v v^ V v V v v v

Bm G D F#m
3)---11--11-11-----12--12--12-----11---11--11-----9---9--9-
4)-9---9---9-----9---9----9-----7----7----7-----7---7---7--

Verse:
Bm G
She was a princess, she could've been a queen
D F#m
She had the angels beneath her broken wings
Bm G
She had the vision, she had the sight
D F#m
She wants perfection, she wants it right

Bm G
Who cares anymore?
D F#m Em / G
What's right anymore? (I question everything!)

Chorus:
Bm G D F#m
I won't lie, I've never been ashamed
Bm G D F#m
I don't mind, admitting I'm to blame
Bm G D F#m
I care no more, I can't bare no more
Bm G D F#m
I'll say no more, I can't give you anymore
F#m
I question everything (I question everything)

B5 / C5 / B5 B5 / C5 / B5 B5 / C5 / B5 C5 }
4)-4/5/4--4--4-4-4-4-4----4/5/4--4--4-4-4-4-4----4/5/4--4--4-4-4-4-4----5--5--5--5--5-5-} x2
5)-2/3/2--2--2-2-2-2-2----2/3/2--2--2-2-2-2-2----2/3/2--2--2-2-2-2-2----3--3--3--3--3-3-}
V v ^ ^ v v v^ V v ^ ^ v v v^ V v ^ ^ v v v^ V v V v v v

Verse:
Bm G
He lives in darkness, there is no progress
D F#m
He knows the demons, they lie within him
Bm G
He has no vision, he has no sight
D F#m
He hates perfection, it wasn't right!

Bm G
Who cares anymore,
D F#m Em / G
Who's there anymore? (I question everything!)

Chorus:
Bm G D F#m
I won't lie, I've never been ashamed
Bm G D F#m
I don't mind, admitting I'm to blame
Bm G D F#m
I care no more, I can't bare no more
Bm G D F#m
I'll say no more, I can't give you anymore
F#m
I question everything (I question everything)

B5 / C5 / B5 B5 / C5 / B5 B5 / C5 / B5 C5 }
4)-4/5/4--4--4-4-4-4-4----4/5/4--4--4-4-4-4-4----4/5/4--4--4-4-4-4-4----5--5--5--5--5-5-} x2
5)-2/3/2--2--2-2-2-2-2----2/3/2--2--2-2-2-2-2----2/3/2--2--2-2-2-2-2----3--3--3--3--3-3-}
V v ^ ^ v v v^ V v ^ ^ v v v^ V v ^ ^ v v v^ V v V v v v
I question everything!

Bridge: x8
Em D C D
2)-------0---------------0---------------0---------------0--------
3)-----0----0----------0----0----------0----0----------0----0-----
4)---4--------4------4--------4------2--------2------4--------4---
5)-7------------7--5------------5--3------------3--5------------5-

Em / G
(I question everything!)

Chorus:
Bm G D F#m
I won't lie, I've never been ashamed (I question everything!)
Bm G D F#m
I don't mind, admitting I'm to blame (I question everything!)
Bm G D F#m
I care no more, I can't bare no more
Bm G D F#m
I'll say no more, I can't give you anymore
F#m
I question everything (I question everything)

Outro:
B5 / C5 / B5 B5 / C5 / B5 B5 / C5 / B5 C5
4)-4/5/4--4--4-4-4-4-4----4/5/4--4--4-4-4-4-4----4/5/4--4--4-4-4-4-4----5--5--5--5--5-5-
5)-2/3/2--2--2-2-2-2-2----2/3/2--2--2-2-2-2-2----2/3/2--2--2-2-2-2-2----3--3--3--3--3-3-
V v ^ ^ v v v^ V v ^ ^ v v v^ V v ^ ^ v v v^ V v V v v v
Другие песни: