5FDPBad Company Текст

0 Голосов
Intro: x2
Bm
2)------------3-------3-------3---
3)--------------4-------4-------4-
4)----------4-------4-------4-----
5)----0---2-------2-------2-------
6)-2------------------------------

Verse:
Bm A Bm Bm A
2)---------------3---------------2---------------3-----3-----------------------3---------------2-------
3)-----------4-----4---4-----2-----2---2-----4-----4------4---4------------4-----4---4-----2-----2---2-
4)---------4---4-----4-----2---2-----2-----4---4-----4------4------------4---4-----4-----2---2-----2---
5)----0--2---------------0---------------2--------------------------0--2---------------0---------------
6)-2-------------------------------------------------------------2-------------------------------------
Company Always on the run

Bm A Bm
1)-------------------------------------------------2-------
2)---------3---------------2---------------2/3-------2-3---
3)-----4-----4---4-----2-----2---2-----4-------4---------4-
4)---4---4-----4-----2---2-----2-----4---4-------4---------
5)-2---------------0---------------2-----------------------
6)---------------------------------------------------------

Verse:
Bm
Company
A Bm
Always on the run
Bm
А destiny
A Bm A Bm
Oh it's the rising sun
Bm
I was born
A Bm
А shotgun in my hands
Bm
Behind the gun
A Bm A Bm
I'll make my final stand, yeah!
Bm
And that's why they call me

Chorus:
D E
Bad Company
Bm
I can't deny
D E
Bad, Bad Company
Bm
Till the day I die
Bm
2)---2/3---0/2-------------
3)---------------3/4---1/2-
4)-------------------------
5)-2-----2-----2-----2-----

Bm Until the day I die
2)---2/3---0/2-------
3)---------------3/4-
4)-------------------
5)-2-----2-----2-----

Bm
2)------------3-------3-------3---
3)--------------4-------4-------4-
4)----------4-------4-------4-----
5)----0---2-------2-------2-------
6)-2------------------------------
Until the day I die

Intro: x2
Bm
2)------------3-------3-------3---
3)--------------4-------4-------4-
4)----------4-------4-------4-----
5)----0---2-------2-------2-------
6)-2------------------------------

Verse:
Bm
Rebel souls
A Bm A Bm
Deserters we've been called
Bm
Chose a gun
A Bm A Bm
And threw away the sun
Bm
Now these towns,
A Bm
Well they all know our name
Bm
The death punch sound
A Bm A Bm
Is our claim to fame
Bm
And that's why they call me

Chorus:
D E
Bad Company
Bm
I can't deny
D E
Bad, Bad Company
Bm
Till the day I die

Bm
2)---2/3---0/2-------------
3)---------------3/4---1/2-
4)-------------------------
5)-2-----2-----2-----2-----

Bm Until the day I die
2)---2/3---0/2-------
3)---------------3/4-
4)-------------------
5)-2-----2-----2-----

Bridge:
Bm
Eye for an eye
C#m D
Tooth for a tooth
C#m
Blood for blood
Bm C#m
We've all gotta die
D C#m
We've all gotta die

G Bm G Bm G Bm G F#

Intro: x2
Bm
2)------------3-------3-------3---
3)--------------4-------4-------4-
4)----------4-------4-------4-----
5)----0---2-------2-------2-------
6)-2------------------------------

Bm
And that's why they call me

Chorus:
D E
Bad Company
Bm
I can't deny
D E
Bad, Bad Company
Bm
Till the day I die

D E
Bad Company
Bm
I can't deny
D E
Bad, Bad Company
Bm
Till the day I die

Bm
2)---2/3---0/2-------------
3)---------------3/4---1/2-
4)-------------------------
5)-2-----2-----2-----2-----
Until the day I die
Bm
2)---2/3---0/2-------------
3)---------------3/4---1/2-
4)-------------------------
5)-2-----2-----2-----2-----
Until the day I die
Bm
2)---2/3---0/2-------------
3)---------------3/4---1/2-
4)-------------------------
5)-2-----2-----2-----2-----
Until the day I die
Bm
2)---2/3---0/2-------------
3)---------------3/4---1/2-
4)-------------------------
5)-2-----2-----2-----2----- Bm
Until the day I die
Другие песни: