5FDPBack For More Текст, аккорды

0 Голосов
Intro: x4
B5 A5 E5 D5 B5
4)-4-2--2-0--0--4--4-4--4--4-4--4-4-
5)-2-0--2-0--0--2--2-2--2--2-2--2-2-
6)------0---------------------------
V v v V v v V v

Verse:
B5 A5 E5 D5
Let's get it on!
B5 B5
It's time to get in the game, you gotta fight
A5 E5 D5 B5
'til it hurts and then you do it again
B5 A5 E5 D5
Let's tear it up!
B5 B5 A5
I'm staying straight to the core, ain't no room
E5 D5 B5
for second place, go big or go home!

Pre-Chorus:
B5
Rise!
C5
It's dog eat dog
B5
Rise!
C5
Man versus beast
B5
Rise!
C5
The strong will survive
B5
Rise!
B5
I've got no time for the weak

Chorus:
Em Em
It's time to rise up, man up, get back up,
C G / D
Never been and won't be broken
Em Em C G / D
Dust off and then come back for more
Em Em
You've gotta reach down, dig deep, and break ground,
C G / D
Show them all you won't be beaten
Em Em C
Brush it off and then come back for more!
D
Come back for more

Intro: x2
B5 A5 E5 D5 B5
4)-4-2--2-0--0--4--4-4--4--4-4--4-4-
5)-2-0--2-0--0--2--2-2--2--2-2--2-2-
6)------0---------------------------
V v v V v v V v

Verse:
B5 A5 E5 D5
It's do or die!
B5 B5 A5 E5
Time to settle the score, gotta give it all you got
D5 B5
and then you give it some more
B5 A5 E5 D5
There will be blood
B5
You've gotta fight 'til you break,
B5 A5 E5 D5 B5
talk a lot of trash now step up to the plate

Pre-Chorus:
B5
Rise!
C5
Refuse to give in
B5
Rise!
C5
Ashes to dust
B5
Rise!
C5
Make 'em remember your name
B5
Rise!
B5
'Cause in yourself you can trust

Chorus:
Em Em
It's time to rise up, man up, get back up,
C G / D
Never been and won't be broken
Em Em C G / D
Dust off and then come back for more
Em Em
You've gotta reach down, dig deep, and break ground,
C G / D
Show them all you won't be beaten
Em Em C
Brush it off and then come back for more!
D
Come back for more

Bridge: x4
E5 A5 B5 D5 E5 A5 B5
4)-9------7--9------9------7--9------9------7--9------------
5)-7-7--9-5--7-7----7-7--9-5--7-7----7-7--9-5--7-7----9-9-9-
6)---5--7------5------5--7------5------5--7------5----7-7-7-
Rah!

G G Am Am G G Em Em G G Am Am C D

Chorus:
Em Em
It's time to rise up, man up, get back up,
C G / D
Never been and won't be broken
Em Em C G / D
Dust off and then come back for more
Em Em
You've gotta reach down, dig deep, and break ground,
C G / D
Show them all you won't be beaten
Em Em C
Brush it off and then come back for more!
D
Come back for more

Outro:
E5 A5 B5 D5 E5 A5 B5
4)-9------7--9------9------7--9------9------7--9------------
5)-7-7--9-5--7-7----7-7--9-5--7-7----7-7--9-5--7-7----9-9-9-
6)---5--7------5------5--7------5------5--7------5----7-7-7-
Rah!
Другие песни: